Oops, an error
Loading. Please wait.

Sálvame De Mi Tab

17 views 1 this week
no commentswrite comment
1 2 3 4 5
3 more votes to show rating
add to favorites
launch autoscroll
font size
0
reset
how to read this tab
guitar tuner
×
Best way to learn
"Sálvame De Mi"
Autoscroll
slow
fast
+/-
esc
set tempo
stop

La rola es una de mis canciones favoritas de la gusana 
es muy facil solo hay que llevar el ritmo de la bataka
cualquier duda o comentario a palanqueta@

INTRO:  REPITE  3 VECES
E--------------------------------------------------
B--------------------------------------------------
G--5-5-5-5-5555-5-5-0-9-9-9-9-9999-9-9-9-8-7-5-----
D--5-5-5-5-5555-5-5-0-9-9-9-9-9999-9-9-9-8-7-5-----
A--3-3-3-3-3333-3-3-0-7-7-7-7-7777-7-7-7-6-5-3-----
E--------------------------------------------------

Riff 1:

     Lamentable mi condición
E---8-------7--------7--------------
B----8---8---8--9-8---8--9-8--------
G------9------9----9---9----9-7-----
D-----------------------------------
A-----------------------------------
E-----------------------------------

La segunda guitarra toka estos acordes 
Junto con el rif 1 el ritmo es igual que el intro

E---8------7------
B---8------7-8----
G---8-9----7--9---
D---8--10--7--9---
A---8--10--7------
E---8------7------

CORO           repite 4
E-------------------------
B-------------------------
Gm 5~~5/7~~7/9998-7-5-----
Dm 5~~5/7~~7/9998-7-5-----
Am 3~~3/5~~5/7776-5-3-----
E-------------------------
Intro repite 1
Riff 1


Cuando empieza el verso de:

(No puedo respirar) se toka 
 
E------------------
B------------------
G---5555~/9999------
D---5555~/9999------
Am  3333~/7777------
E------------------

SOLO   1 GUITARRA    3 VECES

A--3/5~~~~~~~-------3/7~/3~~~~~~~3/5/3------
E----------------------------------------

SEGUNDA GUITARRA 

E-------8----8----7----7-----7-------
B-----8----8----8----8-----8---8-----
G---9----9----9----9-----9-----------

 SE TOKA 3 VECES
E-----------------------------------------------
B-----------------------------------------------
G---5-5-5-5------5-5-5-5-----9-9-9-9----9-9-9-9-
D---5-5-5-5------5-5-5-5-----9-9-9-9----9-9-9-9-
A---3-3-3-3------3-3-3-3-----7-7-7-7----7-7-7-7-
E-----------------------------------------------

Se repite 
Riff 1
Suggest correction
Give kudos to tab author, rate the tab!
1 2 3 4 5
comments
print report bad tab
guest
You may want to rate the tab now too:
select rating
Wanna post a correction for this tab? Suggest correction