Oops, an error
Loading. Please wait.

Si Todo Está Bien Tab

16 views 1 this week
no commentswrite comment
1 2 3 4 5
3 more votes to show rating
add to favorites
×
Save as Personal and add changes to this tab that will be seen only by you. Learn more ›
×
You can save this tab as Personal to edit and correct it or add notes. All changes will be seen only by you. Learn more »
save as personal
new!
launch autoscroll
font size
0
reset
how to read this tab
guitar tuner
Autoscroll
slow
fast
+/-
esc
set tempo
stop
SI TODO ESTA BIEN


(El intro entra con un bajo asi:)
                                       
  F#5     F5    E5
G------------------------------------------------
D------------------------------------------------   
A------------------------------------------------
E-2-2-2-1-1-1-0-0-0-0-0-0-0-0-0-0-0--------------


  (y la guitarra hace esto:)
    F#5      F5        E5
E------------------------------------
B------------------------------------
G------------------------------------
D--4-4-4-4--3-3-3-3--2-2-2-2-2-2-2----    
A--4-4-4-4--3-3-3-3--2-2-2-2-2-2-2----
E--2-2-2-2--1-1-1-1--0-0-0-0-0-0-0----


VERSO:
 
   
 
                 G     A           F#m

  Si todo está bien porque nos duele tanto
    G     A      F#m
  pensar en el pasado
        G      A          F# 
  los buenos tiempos se acabaron 

         G   A      D
E--------3---5------2----
B--------3---5------3----
G--------4---6------2----
D--------5---7------0----    
A--------5---7------0----
E--------3---5------0----

     sin explicar  por que.
      

       G     A    D    F#m
E------3-----5----2----2--
B------3-----5----3----2--
G------4-----6----2----2--
D------5-----7----0----4--    
A------5-----7----0----4--
E------3-----5----0----2-- 
   Los sueños en el suelo, 
    G     A       D
   pero estamos bien.

     G     A      F#m
E----3-----5------2----
B----3-----5------2----
G----4-----6------2----
D----5-----7------4----    
A----5-----7------4----
E----3-----5------2---- 

  Campanas que suenan en
  un laberinto de engaños y
  promesas tus ojos negros me
  han mentido 

       G     A    D
E------3-----5----2----
B------3-----5----3----
G------4-----6----2----
D------5-----7----0----    
A------5-----7----0----

 diciendo que estas bien

       G     A    D    F#m
E------3-----5----2----2--
B------3-----5----3----2--
G------4-----6----2----2--
D------5-----7----0----4--    
A------5-----7----0----4--
E------3-----5----0----2-- 

  porque nos duele tanto 
    G      A       D
  cuando estamos bien.

  
      A               G     
E-----5---------------3---------
B-----5---------------3---------
G-----6---------------4---------
D-----7---------------5---------    
A-----7---------------5---------
E-----5---------------3--------- 

    De las sombras salen         
    engaños olvidados            
    tal vez el sol los cure
    tal vez volvamos a empezar.

                
       A                G     
E-----5-5-5-5-5-------3-3-3-3-3-
B-----5-5-5-5-5-------3-3-3-3-3-
G-----6-6-6-6-6-------4-4-4-4-4-
D-----7-7-7-7-7-------5-5-5-5-5-    x4
A-----7-7-7-7-7-------5-5-5-5-5-
E-----5-5-5-5-5-------3-3-3-3-3-- 
                  

       D
E--2-2-2-2-2-2--
B--3-3-3-3-3-3--
G--2-2-2-2-2-2--
D--0-0-0-0-0-0--    
A--0-0-0-0-0-0--


SOLO:G,A,F#m,G,A,F#m,G,A,F#m,G,A,D.
     G,A,D,G,A,D.


 
     G     A      F#m
E----3-----5------2----
B----3-----5------2----
G----4-----6------2----
D----5-----7------4----    
A----5-----7------4----
E----3-----5------2---- 
 

                 G

  Si todo está bien
    A         F#m
  volvamos del pasado
   G       A    F#m
  cargados de poder,
  G       A     F#m
  juremos un amor eterno 

         G   A      D
E--------3---5------2----
B--------3---5------3----
G--------4---6------2----
D--------5---7------0----    
A--------5---7------0----
E--------3---5------0----
       si todo está bien

       G     A    D    F#m
E------3-----5----2----2--
B------3-----5----3----2--
G------4-----6----2----2--
D------5-----7----0----4--    
A------5-----7----0----4--
E------3-----5----0----2-- 

  porque nos duele tanto 
    G       A      D
  cuando estamos bien.

  
 
     G5         A5        F#5
E---------------------------------
B---------------------------------
G---------------------------------
D----5-5-5-5---7-7-7-7---4-4-4-4-4    
A----5-5-5-5---7-7-7-7---4-4-4-4-4
E----3-3-3-3---5-5-5-5---2-2-2-2-2
  
  
     G5         A5        
E------------------------
B------------------------
G------------------------
D----5-5-5-5---7-7-7-7---    
A----5-5-5-5---7-7-7-7---
E----3-3-3-3---5-5-5-5---


         G   A      D
E--------3---5------2----
B--------3---5------3----
G--------4---6------2----
D--------5---7------0----    
A--------5---7------0----
E--------3---5------0----
       si todo está bien


 FINAL:             
       G     A    D    F#m
E------3-----5----2----2--
B------3-----5----3----2--
G------4-----6----2----2--
D------5-----7----0----4--    
A------5-----7----0----4--
E------3-----5----0----2-- 

  porque nos duele tanto 
    G       A      D
  cuando estamos bien.
Suggest correction
Give kudos to tab author, rate the tab!
1 2 3 4 5
comments
print report bad tab
guest
Wanna post a correction for this tab? Suggest correction