Oops, an error
Loading. Please wait.

Te Acordarás De Mí Tab

49 views 1 this week
no commentswrite comment
1 2 3 4 5
3 more votes to show rating
add to favorites
launch autoscroll
font size
0
reset
how to read this tab
guitar tuner
×
Best way to learn
"Te Acordarás De Mí"
Autoscroll
slow
fast
+/-
esc
set tempo
stop
aki les dejo esta rola de la gusana k esta bn chida
bueno aver si les gusta

mi correo [six_noc@
:D

lleva dos guitaras y se tocan al mismo tiempo

intro:

Guitarra 1:

e|-7-7-7-7-7-7-7-7-7--9-9--11-----7------|
B|----------------------------7-9---9----|
G|---------------------------------------| (X4)
D|---------------------------------------|
A|---------------------------------------|
E|---------------------------------------|

Guitarra 2:
   B      B9    B   B9
e|-2--2---2--2--2---2--|
B|-4--4---2--2--4---2--|
G|-4--4---4--4--4---4--|
D|-4--4---4--4--4---4--| (X4)
A|-2--2---2--2--2---2--|
E|-2--2---2--2--2---2--|


        B
Cuando Camines Un Camino

Y Una Mano Te Salude,
   C#m
Te Acordaras De Mí,
           F#
Cuando La Gente Te Sonría
,
Cuando Veas Que Alguien Llora,
    B
Te Acordaras De Mí.
        B
Cuando Te Digan Que Te Quieren

Y Prometan Tantas Cosas
    C#m
Te Acordaras De Mí,
          F#
Y En Las Noches Y En Las Tardes

Por Las Que Bajes Sola
    B
Te Acordaras De Mí.

   B      B9    B   B9
e|-2--2---2--2--2---2--|
B|-4--4---2--2--4---2--|
G|-4--4---4--4--4---4--|
D|-4--4---4--4--4---4--| (X2)
A|-2--2---2--2--2---2--|
E|-2--2---2--2--2---2--|

          B
Cuando Recibas Un Regalo,

De Un Amigo Con Cariño,
    C#m
Te Acordaras De Mí,
           F#
Y Si Te Acuestas Con Caricias

Y Despiertas Con Ternuras,
    B
Te Acordaras De Mí.
          B
Y Cuando Mires Esa Foto
         B7
Donde Estamos Abrazados,
     E                    Em
Tu Llanto No Podrás Contener,
          B
Por Cada Gota Que Derrames,
      F#
Cada Gota Que Te Seques,
   B
Te Acordaras De Mí.
        B
Cuando Camines Un Camino

Y Una Mano Te Salude,
    C#m
Te Acordaras De Mí,
           F#
Cuando La Gente Te Sonría,

Cuando Veas Que Alguien Llora,
    B
Te Acordaras De Mí.
          B
Y Cuando Mires A Los Ojos
           B7
De Alguien Que Te Quiera Amar
     E                    Em
Tu Llanto No Podrás Contener,
          B
Por Cada Gota Que Derrames,
      F#
Cada Gota Que Te Seques,
    B
Te Acordaras De Mí

e|-----------------------/
B|-----------------------/
G|-6-6-4-6--4-6-4-6-4-6-4/
D|-----------------------/
A|-----------------------/
E|-----------------------/

-------------------------------------------------/
-4-4-2-4--2-4-2-4-2-4-2---5-5--4-5-4-5-4-5-4-5-4-/
-------------------------------------------------/
-------------------------------------------------/
-------------------------------------------------/
-------------------------------------------------/

e|---------------------------------------/
B|-7-7-7-7-7-7-7-7-7-7-7-7-7-7-7--5-5-5--/
G|---------------------------------------/
D|---------------------------------------/
A|---------------------------------------/
E|---------------------------------------/

-------------------------2-2-2-2-2-2-2-2-2-2-2-2-2-2/
-4-5-4-5-4-5-4-5-4-5-4-5----------------------------/
----------------------------------------------------/
----------------------------------------------------/
----------------------------------------------------/
----------------------------------------------------/

e|-3-3-3-3-3-3-3-3--5-5-5-5-5-5-5-5--7-7-7-7-7-7-7-7-7-7-7-7-7-7-7/
B|----------------------------------------------------------------/
G|----------------------------------------------------------------/
D|----------------------------------------------------------------/
A|----------------------------------------------------------------/
E|----------------------------------------------------------------/

         B
Cuando Recibas Un Regalo,

De Un Amigo Con Cariño,
    C#m
Te Acordaras De Mí,
         F#
Y Si Te Acuestas Con Caricias

Y Despiertas Con Ternuras,
    B
Te Acordaras De Mí.
          B
Y Cuando Mires Esa Foto
         B7
Donde Estamos Abrazados,
     E                    Em
Tu Llanto No Podrás Contener
          B
Por Cada Gota Que Derrames,
      F#
Cada Gota Que Te Seques,
    B
Te Acordaras De Mí.

e|----------------------------|
B|----------------------------|
G|-4-4-4-4-4------------------|
D|-----------6-4--------------|(X4) y termina en B
A|---------------6------------|
E|----------------------------|
Suggest correction
Give kudos to tab author, rate the tab!
1 2 3 4 5
comments
print report bad tab
guest
You may want to rate the tab now too:
select rating
Wanna post a correction for this tab? Suggest correction