Oops, an error
Loading. Please wait.

La Excepción Tab

version 2
version 2

Whole song

136 views 1 this week
no commentswrite comment
1 2 3 4 5
3 more votes to show rating
add to favorites
launch autoscroll
font size
0
reset
how to read this tab
guitar tuner
×
Best way to learn
"La Excepción"
Autoscroll
slow
fast
+/-
esc
set tempo
stop
Intro:
e|---------------------------------------------------------------
B|---------------------------------------------------------------
G|------9-9-9--7-7--13-13b---------9-9-9--7-7--19b-19b-19b-19b---
D|-9-9--9-9-9--7-7------------9-9--9-9-9--7-7--------------------
A|-9-9--7-7-7--5-5------------9-9--7-7-7--5-5--------------------
E|-7-7------------------------7-7--------------------------------

e|---------------------------------------------------------------
B|---------------------------------------------------------------
G|------9-9-9--7-7--11b-12b-13b--------9-9-9--7--7-7-7-7-9-9-----
D|-9-9--9-9-9--7-7----------------9-9--9-9-9--7--7-7-7-7-9-9-----
A|-9-9--7-7-7--5-5----------------9-9--7-7-7--5--5-5-5-5-7-7-----
E|-7-7----------------------------7-7----------------------------


Verso:
Quiero ser
lo que te hace más feliz
a mí me gusta verte así
como el fin de este viaje

Guitarra 1
e|----------------------------------------------
B|----------------------------------------------
G|----------------------------------------------
D|-9-9-9-9-4-4-4-7--7-7-7-7-7-7-7---------------  x7
A|-9-9-9-9-4-4-4-7--7-7-7-7-7-7-7---------------
E|-7-7-7-7-2-2-2-5--5-5-5-5-5-5-5---------------
PM . . . . . . . .  . . . . . . .


Préndeme
Sácate
Llévame
a un lugar con parlantes

Guitarra 2
e|-7--------5-x-x-5-----7--------5--5--5-----7--------5-x-x-5--
B|-7--------5-x-x-5-----7--------5--5--5-----7--------5-x-x-5--
G|-8--------6-x-x-6-----8--------6--6--6-----8--------6-x-x-6--
D|-9--------7-x-x-7-----9--------7--7--7-----9--------7-x-x-7--
A|-9--------7-x-x-7-----9--------7--7--7-----9--------7-x-x-7--
E|-7--------5-x-x-5-----7--------5--5--5-----7--------5-x-x-5--

e|-7--------------------
B|-7--------------------
G|-8--------------------
D|-9---4-4-4-7-7-7-7-7--
A|-9---4-4-4-7-7-7-7-7--
E|-7---2-2-2-5-5-5-5-5--


G#m            G            G#m
    Y que nos vuele la sonoridad
         G
por el aire
G#m       G               D (Fill 1)
    un espacio para celebrar
                 E
sé que esto es grande

Fill 1
e|-2--2-2-0-------
B|----------------
G|----------------
D|----------------
A|----------------
E|----------------


e|---------------------------------------------------------------
B|---------------------------------------------------------------
G|------9-9-9--7-7--13-13-13b---------9-9-9--7-7--17b-18b-19b----
D|-9-9--9-9-9--7-7---------------9-9--9-9-9--7-7-----------------
A|-9-9--7-7-7--5-5---------------9-9--7-7-7--5-5-----------------
E|-7-7---------------------------7-7-----------------------------

e|---------------------------------------------------------------
B|---------------------------------------------------------------
G|------9-9-9--7-7--xx-7-xx-7-xx-7--------9-9-9--7--7-7-7-7-9-9--
D|-9-9--9-9-9--7-7--xx-7-xx-7-xx-7---9-9--9-9-9--7--7-7-7-7-9-9--
A|-9-9--7-7-7--5-5--xx-5-xx-5-xx-5---9-9--7-7-7--5--5-5-5-5-7-7--
E|-7-7-------------------------------7-7-------------------------


Verso:
Este amor es
la mejor cara del poder
y estás cansada de poner
el dedo en la llaga

Guitarra 1
e|----------------------------------------------
B|----------------------------------------------
G|----------------------------------------------
D|-9-9-9-9-4-4-4-7--7-7-7-7-7-7-7---------------  x3
A|-9-9-9-9-4-4-4-7--7-7-7-7-7-7-7---------------
E|-7-7-7-7-2-2-2-5--5-5-5-5-5-5-5---------------
Pm . . . . . . . .  . . . . . . .

Guitarra 2
e|-7---------------7--------5--5--5-----7--------5-x-x-5---------
B|-7---------------7--------5--5--5-----7--------5-x-x-5---------
G|-8---------------8--------6--6--6-----8--------6-x-x-6---------
D|-9---------------9--------7--7--7-----9--------7-x-x-7---------
A|-9---------------9--------7--7--7-----9--------7-x-x-7---------
E|-7---------------7--------5--5--5-----7--------5-x-x-5---------

e|-7------------------------
B|-7------------------------
G|-8------------------------
D|-9---4-4-4-7-7------------
A|-9---4-4-4-7-7---------7--
E|-7---2-2-2-5-5-5-7-7/9----


G#m        G                G#m
    Este tiempo llegó para ahogar
        G
a la bestia
G#m         G
    todo acaba bloqueado
D              E
entre tanta histeria


Estribillo (Acordes con cejilla):
B       G           A
  Hoy hagamos la excepción
     E
de romper las reglas
G#m           D       A
tanto hambre sin satisfacción,
    E
satisfacción

B       G           A
Hoy hagamos la excepción
        E
de estirar la cuerda
G#m     G
y que durar sea
F#m                 G#m
mejor que arder, mejor que arder


e|-----------------------------------------------------------
B|-----------------------------------------------------------
G|------9-9-9--7-7--13/14/13/14---------9-9-9--7-7--9b-11b---
D|-9-9--9-9-9--7-7-----------------9-9--9-9-9--7-7-----------
A|-9-9--7-7-7--5-5-----------------9-9--7-7-7--5-5-----------
E|-7-7-----------------------------7-7-----------------------

(nena llévame a algún lugar con parlantes)

e|-----------------------------------------------------------
B|-----------------------------------------------------------
G|------9-9-9--7-7--15b-16b--------9-9-9--7--7-7-7-7---------
D|-9-9--9-9-9--7-7------------9-9--9-9-9--7--7-7-7-7---------
A|-9-9--7-7-7--5-5------------9-9--7-7-7--5--5-5-5-5---------
E|-7-7------------------------7-7----------------------------


Puente:

Guitarra 1: E A G  (x4)

Guitarra 2:
e|--------------------
B|--------------------
G|-9-9----------------
D|-9-9--7-7-7--5-5-5--  x4
A|-7-7--7-7-7--5-5-5--
E|------5-5-5--3-3-3--

D         E (Fill 2)
  Mecanismos
D         E
  de ilusión
D         E
  todo el mundo nena,
F#m       G#m
  es impostor

Fill 2
e|----------------
B|----------------
G|----------------
D|----------------
A|----------------
E|-0-2-4-5--------


Estribillo (Acordes con cejilla):
B       G           A
  Hoy hagamos la excepción
     E
de romper las reglas
G#m           D       A
tanto hambre sin satisfacción,
    E
satisfacción

B       G           A
Hoy hagamos la excepción
        E
de estirar la cuerda
G#m     G
y que durar sea
F#m                 G#m
mejor que arder, mejor que arder


Guitarra 1: B G A E

Guitarra 2:
e|-------------------------------------------------------------------------
B|-------------------------------------------------------------------------
G|-------------------------------------------------------------------------
D|-9-9-9-9-9-9-9-9-9-9-9-9-14-14-14-14-14-14-14-14-16-16-16-16-16-16-16-16-
A|-x-x-x-x-x-x-x-x-x-x-x-x--x--x--x--x--x--x--x--x--x--x--x--x--x--x--x--x-
E|-7-7-7-7-7-7-7-7-7-7-7-7-12-12-12-12-12-12-12-12-14-14-14-14-14-14-14-14-

e|----------------------------------------------------------------------
B|----------------------------------------------------------------------
G|----------------------------------------------------------------------
D|-21-21-21-21-21-21-21-21-21-21-14-14-14-14-14-14-14-14-16-16-16-16-16-
A|--x--x--x--x--x--x--x--x--x--x--x--x--x--x--x--x--x--x--x--x--x--x--x-
E|-19-19-19-19-19-19-19-19-19-19-12-12-12-12-12-12-12-12-14-14-14-14-14-


Guitarra 1: G#m G x 3

Guitarra 2
e|-17b-17-15--17b-17-15---21b-21b--
B|----------------------------------
G|----------------------------------
D|----------------------------------
A|----------------------------------
E|----------------------------------

D             E
Ya rompí las reglas
Suggest correction
Give kudos to tab author, rate the tab!
1 2 3 4 5
comments
print report bad tab
guest
You may want to rate the tab now too:
select rating
Wanna post a correction for this tab? Suggest correction