Oops, an error
Loading. Please wait.

Oscura Intención Tab

7 views 1 this week
no commentswrite comment
1 2 3 4 5
3 more votes to show rating
add to favorites
launch autoscroll
font size
0
reset
how to read this tab
guitar tuner
×
Best way to learn
"Oscura Intención"
Autoscroll
slow
fast
+/-
esc
set tempo
stop
Esta es mi transcripción del solo de guitarra que hace Cerati en
el minuto 2:32 y del mini-solo del final que viene a ser el cierre
de la canción, creo que esta bastante correcta y precisa.
El resto de la canción tiene un riff genial, pero lo toca
demasiado rapido y aún no lo transcribo, disfruten tocando
el solo de este tema increible del genio Gustavo Cerati.

l = ligado
b = estirar la cuerda
r = dejar sonar (vibrato)
empieza 2:32
E|-------------------------------------------|
B|-----------------------------------6-6-5b--|
G|-------------3---3l5----------3------------|
D|-----5-5-3-5---5-----5----3l5---5----------|
A|-------------------------------------------|
E|-------------------------------------------|

E|-------------------------------------------|
B|-------------------------------------------|
G|-------------3---3l5----------3-3-3-3------|
D|-----5-5-3-5---5-----5----3l5---------5----|
A|-------------------------------------------|
E|-------------------------------------------|

E|-------------------------------------------|
B|-----------------------------------6-6-5b--|
G|-------------3---3l5----------3------------|
D|-----5-5-3-5---5-----5----3l5---5----------|
A|-------------------------------------------|
E|-------------------------------------------|

E|-------------------------------------------|
B|-----6-5-3---3l5---------------------------|
G|-----------5-----5-3-----------------------|
D|---------------------5---------------------|
A|-------------------------------------------|
E|-------------------------------------------|
 termina 2:47


Cierre de la canción
empieza 2:58
E|-------------------------------------------|
B|------18-17-15----15l17--------------------|
G|---------------17-------17-15--------------|
D|------------------------------17r----------|
A|-------------------------------------------|
E|-------------------------------------------|
  termina 3:00

Espero que la disfruten!


si encuentran errores o tienen preguntas, envien mail a
Suggest correction
Give kudos to tab author, rate the tab!
1 2 3 4 5
comments
print report bad tab
guest
You may want to rate the tab now too:
select rating
Wanna post a correction for this tab? Suggest correction