Oops, an error
Loading. Please wait.

Aprendí A Esquivar Tab

71 views 1 this week
no commentswrite comment
1 2 3 4 5
3 more votes to show rating
add to favorites
launch autoscroll
font size
0
reset
how to read this tab
guitar tuner
Autoscroll
slow
fast
+/-
esc
set tempo
stop
Help us to improve Ultimate-Guitar.com Take our survey!
×
Acá les dejo este buen tema del pelado
espero que les sirva, voten.

Riff1:

E-----------------------------------
B-----------------------------------
G-----------------------------------
D--5---7-5--------------------------
A------------7-5---3---0-3---0------
E------------------------------3----


Intro:

E------------------------------------/---------------------
B------------------------------------/---------------------
G------------------------------------/---------------------
D----2/5-5---3-3---2-2---------------/---2/5-5--3-3---2-2-
A------------------------5-5--3/5/3--/---------------------
E------------------------------------/---------------------


E----------------------------------------------------------
B----------------------------------------------------------
G-----2--4--4/5-4---2--------------------------------------
D--5--------------------5------3--3--1--0------------------
A----------------------------------------------------------
E----------------------------------------------------------


Los acordes de la intro son: C F  C G


Me quemaste la memoria
F
con el fuego de tu abrazo
C
tanto le temí a tu lazo que
F
no hice más que sea verdad
G
Buscando fascinación
Am
olvidé quien soy

C
me rebela la derrota
F
me avergüenza ser tu rey
C
Aunque ahora soy rehén
F
y mi orgullo está sin ropa

G
para no lastimarme
Am
aprendí a esquivar
E
Me siento campeón
F
como Locche en Japón

           Fm
esquivándote

C  F  C  G

C
Justo antes del Knock out
F
el horizonte hizo black out
C
trabajaste el corazón
F
regando leche
G
Me diste un gancho de amor
Am
y me hice duro otra vez


C
Me deslumbra esta derrota
F
Me estimula este fracaso
C
Y hoy sin ninguna razón
F
Me siento campeón

G
Me hace fuerte caer
Am
y levantarme
E
Me siento campeón
F
Como Locche en Japón
            Fm
Esquivándote

Riff1 (Durante todo el coro)

(Coro)
C
Campeón como Locche en Japón
F
Campeón como Locche en Japón
C
Campeón como Locche en Japón
F
Campeón como Locche

G
Me hace fuerte caer
Am
y levantarme
E
Me siento campeón
F
como Locche
           C
esquivándote

(Coro) este sin riff1

C
Campeón como Locche en Japón

F
campeón como Locche en Japón
esquivándote
C
Campeón como Locche en Japón
F
campeón como Locche
esquivándote

(Coro) con riff1
C
Campeón como Locche en Japón
F
campeón como Locche

C (termina con este acorde)

?Un candombe en la cabeza que no es para bailar?

Agunate Nilcolino
Suggest correction
Give kudos to tab author, rate the tab!
1 2 3 4 5
comments
print report bad tab
guest
You may want to rate the tab now too:
select rating
Wanna post a correction for this tab? Suggest correction