Oops, an error
Loading. Please wait.

Muero Por Tí Tab

8 views 1 this week
no commentswrite comment
1 2 3 4 5
3 more votes to show rating
add to favorites
launch autoscroll
font size
0
reset
how to read this tab
guitar tuner
×
Best way to learn
"Muero Por Tí"
Autoscroll
slow
fast
+/-
esc
set tempo
stop
    Hola a todos, esta es mi primera transcripción aquí en ?La cuerda?,
espero les agrade la postura de las notas y si tienen una manera de
mejorarla con gusto ponganla aquí en la pagina así nos servirá a todos
para aprender.

    Esta canción va dedicada para la única persona que amo y
que siempre amare, te extraño amor ...

    Para las primeras estrofas o si gustan en toda la canción pueden usar
un arpejio simple como este que muestro a continuación:

( Intro )

6E --2----------2----------------------------------
5A -------------------------6-----------6----------
4D ----4---4------4---4------8---8-------8---8-----
3G -----3-3-3------3-3-3------8-8-8-------8-8-8----
2B ------2---2------2---2------6---6-------6---6---
1e ------------------------------------------------

6E --2----------2-----------
5A -------------------------
4D ----4---4------4---4-----
3G -----3-3-3------3-3-3----
2B ------2---2------2---2---
1e -------------------------

Solo donde aparezca la nota tocan su correspondiente, ejemplo:

----F#--------F#-----------d#m--------d#m-----------
6E -2---------2-------------------------------------
5A -----------------------6-----------6-------------
4D ---4---4----4------4----8----8-------8-----8-----
3G ----3-3-3-----3--3--3-----8-8-8--------8--8--8---
2B -----2---2-----2-----2-----6---6--------6-----6--
1e -------------------------------------------------
     Unalagrimaenlarodilla, elrecuerdodepesadillasqueno

-----B*-------------B*----------F#--------F#------------
6E ------------------------------2---------2------------
5A --2---------------2----------------------------------
4D ----4------4-------4----4------4----4-----4-----4----
3G----- 4--4---4-------4--4-4------3--3--------3--3-3---
2B -------2------2-------2---2-------2-----------2---2--
1e ----------------------------------------------------- ( ... )
                      volveran


Las notas B* y C#* se colocan como muestro a continuación, pido disculpa
porque no se su nombre, creo son novenas ...

           E A D G B E
B*  -----> 2 2 4 4 2 2
C#* -----> 4 4 6 6 4 4


( Intro )
F#        D#m       B*        F#

F#
Una lagrima en la rodilla
D#m
el recuerdo de pesadillas
       B*                 F#
que no ... volverán

F#
Lo importante de una sonrisa
D#m
lo profundo de una caricia
        B*
me llevan a ti
        F#
me llevan a ti

B*               F#
Te has metido dentro de mi alma
  A#m                 B*
y no puedo ocultar
                       C#*
todo lo que esta noche
                F#        D#m         B*
me muero por ti

F#
Cuantas noches sin encontrar
D#m
un motivo para soñar
         B*                F#
esas no ... volverán

F#
Cada historia para contar
D#m
cada paso que pueda andar
      B*
me lleva hacia ti
      F#
me lleva hacia ti

B*               F#
Has llenado mi espacio vacío
   A#m              B*
y no quiero ocultar
                         C#*
todo lo que esta noche
                 F#
me muero por ti

B*       C#*       F#      B*        C#*

F#                   B*
Ya no puedo mirar atrás
     C#*
cada vez que te vas

me cuesta volar

F#              B*
Solo quiero caminar
     C#*
y llevarte en mis sentidos

porque muero
                  F#       B*     C#*     F#     B*     C#*     F#      B*
me muero por ti

B*                F#
Has llenado mi espacio vacío
   A#m                B*
y no quiero ocultar
                              C#*
todo lo que esta noche
                 F#       B*
me muero por ti

C#*
Todo lo que esta noche
                 F#        B*       C#*     F#     B*     C#*
me muero por ti   aaaaaaaa
                 F#
Me muero por ti


No soy ningún experto ni nada por el estilo pero cualquier
duda escribanme a mi correo MmardeCcopas@


( ........... Siempre tuyo u_u .......... )
Suggest correction
Give kudos to tab author, rate the tab!
1 2 3 4 5
comments
print report bad tab
guest
You may want to rate the tab now too:
select rating
Wanna post a correction for this tab? Suggest correction