Oops, an error
Loading. Please wait.

Muñeco De Trapo Tab

11 views 1 this week
no commentswrite comment
1 2 3 4 5
3 more votes to show rating
add to favorites
launch autoscroll
font size
0
reset
how to read this tab
guitar tuner
Autoscroll
slow
fast
+/-
esc
set tempo
stop
Help us to improve Ultimate-Guitar.com Take our survey!
×
Intro

E|-----------------3----------------------------------------------------------------------------------|
A|-0>2>3------------------0>2>-----------------------------------3-----2-----0------------------------|
D|--------------------------->0----------1-----------2-----0------------------------------0-----------|
G|-------0-------0--0----------0-------0---0-------0---0-----0-----0-----0------0-------0---2-------2-|
B|---------3---3------3----------3---3-------3---3-------3-----3-----3-----3------1---1-------3---3---|
E|-----------3----------3----------3-----------3------------------------------------0-----------2-----|


E|-----------------3----------------------------------------------------------------------------------|
A|-0>2>3------------------0>2>-----------------------------------3-----2-----0------------------------|
D|--------------------------->0----------1-----------2-----0------------------------------0-----------|
G|-------0-------0--0----------0-------0---0-------0---0-----0-----0-----0------0-------0---2-------2-|
B|---------3---3------3----------3---3-------3---3-------3-----3-----3-----3------1---1-------3---3---|
E|-----------3----------3----------3-----------3------------------------------------0-----------2-----|


E|-3------------------------------------------------8-----------10------------------------------------|
A|--------------2-----------6-----------7-------------------------------------------------------------|
D|----------------------------------------------------------------------------------------------------|
G|---0-------0----0-------0---0-------0---0-------0---0-------0----0----------0-----------------------|
B|-----3---3--------3---3-------7---7-------7---7-------8---8--------10----10-------------------------|
E|-------3------------2-----------6-----------7-----------8-------------10----------------------------|


E|--3------------------3-------------------3-----------3----------------------------------------------|
A|----------3------------------3----------------------------------------------------------------------|
D|----------------------------------------------------------------------------------------------------|
G|--0-----0-0-0------0-0-----0-0-0-----0-----0-------0---0-------0------------------------------------|
B|--3---3---3-----3----3---3---3-----3---------3---3-------3---3--------------------------------------|
E|----3---------3--------3---------3-------------3-----------3----------------------------------------|

Comenzo de la cancion...

Comenzamos el duelo vestidos de lucha rodando en el suelo, y despues en la cama continuo la batalla.

E|-----------------3----------------------------------------------------------------------------------|
A|-0>2>3------------------------------------------------------3-----2-----0---------------------------|
D|-------------------------0----------1-----------2-----0------------------------------0--------------|
G|-------0-------0--0-------0-------0---0-------0---0-----0-----0-----0------0-------0---2-------2----|
B|---------3---3------3-------3---3-------3---3-------3-----3-----3-----3------1---1-------3---3------|
E|-----------3----------3-------3-----------3------------------------------------0-----------2--------|

Yo quite aquel muñeco de trapo que al mes tu me habias regalado, para hacer un espacio y tenderme a tu lado 

E|-----------------3----------------------------------------------------------------------------------|
A|-0>2>3---------------------------------------------------------3-----2-----0----------2-------------|
D|-------------------------0----------1-----------2-----0---------------------------------------------|
G|-------0-------0--0-------0-------0---0-------0---0-----0-----0-----0------0-------0----0-------0---|
B|---------3---3------3-------3---3-------3---3-------3-----3-----3-----3------1---1--------1---1-----|
E|-----------3----------3-------3-----------3------------------------------------0------------0-------|

             Y en el ultimo broche al alúd de la noche nos hizo estallar

E|---------------------------|---3------------------------------------------------------------------------------------------------|
A|-0-------------------------|--------------3-----------0---------------------------------3-----2-----0---------------------------|
D|-------------0-------------|------------------------------------1-----------2-----0------------------------------0--------------|
G|---0-------0---2-------0---|-----0------0---0-------0---0---------0-------0---0-----0-----0-----0------0-------0---2-------2----|
B|-----1---1-------3---3-----|-------3---3------3---3-------3---3-----3---3-------3-----3-----3-----3------1---1-------3---3------|
E|-------0-----------2-------|---------3----------3-----------3---------3------------------------------------0-----------2--------|

E|--3------------------3-----|
A|----------3----------------|
D|---------------------------|
G|--0-----0-0-0------0-0-----| Solo esta parte y rapidamente se pasa a la siguiente (como el comienzo)
B|--3---3---3-----3----3---3-|
E|----3---------3--------3---|

Fui bajando mi escudo con cierta torpeza hasta verme deznudo del miedo y tener la certeza del modo de dartelo todo y hacerte feliz

E|-----------------3----------------------------------------------------------------------------------|
A|-0>2>3------------------------------------------------------3-----2---------------------------------|
D|-------------------------0----------1-----------2-----0------------------0-----------0--------------|
G|-------0-------0--0-------0-------0---0-------0---0-----0-----0-----0------2-------2-----2----------|
B|---------3---3------3-------3---3-------3---3-------3-----3-----3-----3------3---3-----3------------|
E|-----------3----------3-------3-----------3------------------------------------3-----2--------------|

Y en tu cuello alargado bese el infinito y llevamos la voz hasta el borde de un grito y colgados de beso lijeros sin peso quedamos los dos

E|-----------------3-------------------------------------------------------------------------------------------------------------|
A|-0>2>3------------------------------------------3-----------2------------------------------------------------------------------|
D|------------------------0-----1-----2-----0-----------------------------0-----------0-----------0-----------0------------------|
G|-------0-------0--0-------0-----0-----0-----0-----0-------0---0-------0---2------2------2-----2-----2-----2--------------------|
B|---------3---3------3-------3-----3-----3-----3-----3---3-------3---3-------3---3-----3-----3-----3-----3----------------------|
E|-----------3----------3-------------------------------3-----------0-----------3-----2-----2-----0-----0-----2------------------|

Emprendimos un viaje directo hasta el cielo mientras que una luna bordada de estrellas brillaba en tu pelo y montado en tu espalda 
me hiciste llegar

E|---------------------------------------0------------------------------------------------------------|
A|0>2>3----------3-----------2-----------------------0-----------------------------------3------------|
D|---------------------------------------------------------------1-----------2-----0------------------|
G|------0-------0---0-------0---0-------0---0-------0---0-------0---2-------2---0-----0-----0----------|
B|-------3---3-------3---3-------3---3-------0---0-------1---1-------0---0-------0-----0-----0--------|
E|---------3-----------3-----------2-----------0-----------0-----------2------------------------------|

Ha ese sitio lejano y al verme perdido busque entre mis manos tu cuerpo vencido y un calido beso forzo mi regreso a tus ojos de mar

E|-------------------------------------------------0-------------------------------------------------------------------|
A|-3-----2-----3-----------3-----------2-----------------------0-----------------------------------3-----2-------------|
D|-------------------------------------------------------------------------1-----------2-----0-------------------------|
G|---0-----0-----0-------0---0-------0---0-------0---0-------0---0-------0---2-------2---0-----0-----0-----0-----------|
B|-----0-----0-----3---3-------3---3-------3---3-------0---0-------1---1-------0---0-------0-----0-----0-----0---------|
E|-------------------3-----------3-----------2-----------0-----------0-----------2-------------------------------------|

               Yo buscaba ese modo de entrgartelo todo de aprender a volar

E|----------------------------------------------------------------------------------------------------|
A|-0-----------2-----------3--------------------------------------------------------------------------|
D|--------------------------------------0-------------------------------------------------------------|
G|---0-------0---0-------0---0-------0----2-------2---------------------------------------------------|
B|-----1---1-------1---1-------1---1--------3---3-----------------------------------------------------|
E|-------0-----------0-----------0------------3-------------------------------------------------------|

E|--3-------------------------------------------------------------------------------------------------|
A|-------------3-----------0---------------------------------3-----2-----0----------------------------|
D|-----------------------------------1-----------2-----0------------------------------0---------------|
G|----0------0---0-------0---0---------0-------0---0-----0-----0-----0------0-------0---2-------2-----|
B|------3---3------3---3-------3---3-----3---3-------3-----3-----3-----3------1---1-------3---3-------|
E|--------3----------3-----------3---------3------------------------------------0-----------2---------|

E|--3------------------3-------------------3-----------3----------------------------------------------|
A|----------3------------------3----------------------------------------------------------------------|
D|----------------------------------------------------------------------------------------------------|
G|--0-----0-0-0------0-0-----0-0-0-----0-----0-------0---0-------0------------------------------------|
B|--3---3---3-----3----3---3---3-----3---------3---3-------3---3--------------------------------------|
E|----3---------3--------3---------3-------------3-----------3----------------------------------------|

Abrace tu cintura con fuerza y esmero perdi la cordura y calle nuestra historia porque un caballero no 
tiene memoria y no debe de hablar

E|-----------------3----------------------------------------------------------------------------------|
A|-0>2>3------------------------------------------------------3-----2---------------------------------|
D|-------------------------0----------1-----------2-----0------------------0-----------0--------------|
G|-------0-------0--0-------0-------0---0-------0---0-----0-----0-----0------2-------2-----2----------|
B|---------3---3------3-------3---3-------3---3-------3-----3-----3-----3------3---3-----3------------|
E|-----------3----------3-------3-----------3------------------------------------3-----2--------------|

Yo tan solo recuerdo que fue algo mas grande que aquel infinito guardado en tu cuello mas ocre que el brillo sobre tu cabello mas 
fuerte que el mar

E|-----------------3-------------------------------------------------------------------------------------------------------------|
A|-0>2>3------------------------------------------3-----------2------------------------------------------------------------------|
D|------------------------0-----1-----2-----0-----------------------------0-----------0-----------0-----------0------------------|
G|-------0-------0--0-------0-----0-----0-----0-----0-------0---0-------0---2------2------2-----2-----2-----2--------------------|
B|---------3---3------3-------3-----3-----3-----3-----3---3-------3---3-------3---3-----3-----3-----3-----3----------------------|
E|-----------3----------3-------------------------------3-----------0-----------3-----2-----2-----0-----0-----2------------------|

Emprendimos un viaje directo hasta el cielo mientras que una luna bordada de estrellas brillaba en tu pelo y montado en tu espalda 
me hiciste llegar

E|---------------------------------------0-----------------------------------------------------------|
A|0>2>3----------3-----------2-----------------------0-----------------------------------3-----------|
D|---------------------------------------------------------------1-----------2-----0-----------------|
G|-----0-------0---0-------0---0-------0---0-------0---0-------0---2-------2---0-----0-----0---------|
B|-------3---3-------3---3-------3---3-------0---0-------1---1-------0---0-------0-----0-----0-------|
E|---------3-----------3-----------2-----------0-----------0-----------2-----------------------------|

Ha ese sitio lejano y al verme perdido busque entre mis manos tu cuerpo vencido y un calido beso forzo mi regreso a tus ojos de mar

E|-------------------------------------------------0-------------------------------------------------------------------|
A|-3-----2-----3-----------3-----------2-----------------------0-----------------------------------3-----2-------------|
D|-------------------------------------------------------------------------1-----------2-----0-------------------------|
G|---0-----0-----0-------0---0-------0---0-------0---0-------0---0-------0---2-------2---0-----0-----0-----0-----------|
B|-----0-----0-----3---3-------3---3-------3---3-------0---0-------1---1-------0---0-------0-----0-----0-----0---------|
E|-------------------3-----------3-----------2-----------0-----------0-----------2-------------------------------------|

               Yo buscaba ese modo de entregartelo todo de aprender a volar

E|---------------------------------------------------------------------------------------------------|
A|-0-----------2-----------3-------------------------------------------------------------------------|
D|--------------------------------------0------------------------------------------------------------|
G|---0-------0---0-------0---0-------0----2-------2--------------------------------------------------|
B|-----1---1-------1---1-------1---1--------3---3----------------------------------------------------|
E|-------0-----------0-----------0------------3------------------------------------------------------|

E|--3------------------------------------------------------------------------------------------------|
A|-------------3-----------0---------------------------------3-----2-----0---------------------------|
D|-----------------------------------1-----------2-----0------------------------------0--------------|
G|----0------0---0-------0---0---------0-------0---0-----0-----0-----0------0-------0---2-------2----|   Intermedio
B|------3---3------3---3-------3---3-----3---3-------3-----3-----3-----3------1---1-------3---3------|
E|--------3----------3-----------3---------3------------------------------------0-----------2--------|

E|-3------------------------------------------------8-----------10-----------------------------------|
A|--------------2-----------6-----------7------------------------------------------------------------|
D|---------------------------------------------------------------------------------------------------|
G|---0-------0----0-------0---0-------0---0-------0---0-------0----0----------0----------------------|
B|-----3---3--------3---3-------7---7-------7---7-------8---8--------10----10------------------------|
E|-------3------------2-----------6-----------7-----------8-------------10---------------------------|

Rasgueo hacia abajo de ( Em ) despues del rasgueo sigue: 

E|-------0-----------0-----------0-------------------------------------------------------------------|
A|---------------------------------------------------------------------------------------------------|
D|---------------------------------------------------------------------------------------------------|
G|-----0---0-------0---0-------0---0-------0---------------------------------------------------------|
B|---0-------0---0-------0---0-------0---0-----------------------------------------------------------|
E|-0-----------0-----------0-----------0-------------------------------------------------------------|

Fui volviendome loco y pense necesario ponerme a tus pies convertirme en tu dueño y en tu esclavo despues

E|-----------------3---------------------------------------------------------------------------------|
A|-0>2>3------------------------------------------------------3-----2-----0--------------------------|
D|-------------------------0----------1-----------2-----0------------------------------0-------------|
G|-------0-------0--0-------0-------0---0-------0---0-----0-----0-----0------0-------0---2-------2---|
B|---------3---3------3-------3---3-------3---3-------3-----3-----3-----3------1---1-------3---3-----|
E|-----------3----------3-------3-----------3------------------------------------0-----------2-------|

Pero al rozar tus dedos un golpe terrible logro despertarme de aquel lindo sueño y te hiciste invicible dejandome igual que la ultima vez

E|-----------------3-------------------------------------------------------------------------------------------------------------|
A|-0>2>3------------------------------------------3-----------2------------------------------------------------------------------|
D|------------------------0-----1-----2-----0-----------------------------0-----------0-----------0-----------0------------------|
G|-------0-------0--0-------0-----0-----0-----0-----0-------0---0-------0---2------2------2-----2-----2-----2--------------------|
B|---------3---3------3-------3-----3-----3-----3-----3---3-------3---3-------3---3-----3-----3-----3-----3----------------------|
E|-----------3----------3-------------------------------3-----------0-----------3-----2-----2-----0-----0-----2------------------|

Yo llevaba en el suelo no se cuanto rato besando dormido el muñeco de trapo que tu me dejaste mas bien que olvidaste y yo quise guardar

E|--------------------------------------0-----------------------------------------------------------|
A|0>2>3----------3-----------2-----------------------0-----------------------------------3-----------|
D|---------------------------------------------------------------1-----------2-----0-----------------|
G|-----0-------0---0-------0---0-------0---0-------0---0-------0---2-------2---0-----0-----0---------|
B|-------3---3-------3---3-------3---3-------0---0-------1---1-------0---0-------0-----0-----0-------|
E|---------3-----------3-----------2-----------0-----------0-----------2-----------------------------|

Y borracho de llanto y bebiendo tu ausencia le segui abrazando y besando con fuerza como si el pudiera lograr que quisieras venir a volar

E|-------------------------------------------------0-------------------------------------------------------------------|
A|-3-----2-----3-----------3-----------2-----------------------0-----------------------------------3-----2-------------|
D|-------------------------------------------------------------------------1-----------2-----0-------------------------|
G|---0-----0-----0-------0---0-------0---0-------0---0-------0---0-------0---2-------2---0-----0-----0-----0-----------|
B|-----0-----0-----3---3-------3---3-------3---3-------0---0-------1---1-------0---0-------0-----0-----0-----0---------|
E|-------------------3-----------3-----------2-----------0-----------0-----------2-------------------------------------|

              Yo buscaba ese modo de entregartelo todo de aprender a volar

E|----------------------------------------------------------------------------------------------------|
A|-0-----------2-----------3--------------------------------------------------------------------------|
D|--------------------------------------0-------------------------------------------------------------|
G|---0-------0---0-------0---0-------0----2-------2---------------------------------------------------|
B|-----1---1-------1---1-------1---1--------3---3-----------------------------------------------------|
E|-------0-----------0-----------0------------3-------------------------------------------------------|


E|--3-------------------------------------------------------------------------------------------------|
A|-------------3-----------0---------------------------------3-----2-----0------------2---------------|
D|-----------------------------------1-----------2-----0----------------------------------------------|
G|----0------0---0-------0---0---------0-------0---0-----0-----0-----0------0-------0---0-------0-----|
B|------3---3------3---3-------3---3-----3---3-------3-----3-----3-----3------1---1-------1---1-------|
E|--------3----------3-----------3---------3------------------------------------0-----------0---------|

Yo buscaba ese modo de entregartelo todo... 

E|----------------------------------------------------------------------------------------------------|
A|-0-----------2-----------3--------------------------------------------------------------------------|
D|--------------------------------------0-----------0-----------0-----------0-----------0-------------|
G|---0-------0---0-------0---0-------0----2-------2---2------2------2-----2-----2-----2---------------|
B|-----1---1-------1---1-------1---1--------3---3-------3---3-----3-----3-----3-----3-----------------|
E|-------0-----------0-----------0------------3-----------3-----2-----2-----0-----0-----2-------------|

...de volver a intentar.

E|--3-------------------------------------------------------------------------------------------------|
A|-------------3-----------0---------------------------------3-----2-----0----------------------------|
D|-----------------------------------1-----------2-----0------------------------------0---------------|
G|----0------0---0-------0---0---------0-------0---0-----0-----0-----0------0-------0---2-------2-----|
B|------3---3------3---3-------3---3-----3---3-------3-----3-----3-----3------1---1-------3---3-------|
E|--------3----------3-----------3---------3------------------------------------0-----------2---------|

E|-3------------------------------------------------8-----------10------------------------------------|
A|--------------2-----------6-----------7-------------------------------------------------------------|
D|----------------------------------------------------------------------------------------------------|
G|---0-------0----0-------0---0-------0---0-------0---0-------0----0----------0-----------------------|
B|-----3---3--------3---3-------7---7-------7---7-------8---8--------10----10-------------------------|
E|-------3------------2-----------6-----------7-----------8-------------10----------------------------|


Para dar fin a la cancion se ejecutan los rasgueos de los acordes  G - Cadd9 - G

    G        Cadd9
E|--3--|   E|--0--|
A|--2--|   A|--3--|
D|--0--|   D|--2--|
G|--0--|   G|--0--|
B|--3--|   B|--3--|
E|--3--|   E|--3--|


Siento haber tardado un poco pero es que no habia tenido el suficiente tiempo para poder pasarla a Tabs
espero que no se hayan desesperado...

Se me fueron algunos detalles en la transcripcion, espero que lo noten, esta es la version Diego Rivera 2004
y espero que la conserven y que la puedan interpretar rápidamente...

Si tienen alguna duda de la velocidad con la que se toca, solo escuchen la cancion y es la misma, no varia.
No tiene ninguna cosa extraordinaria asi que se les hara facil tocarla.

Dudas, crirticas, comentarios, felicitaciones y mas tabs solo escribanme a: jdiegoriverae@

Dedicada a mi amada esposa: Angelica Muñoz Islas
Suggest correction
Give kudos to tab author, rate the tab!
1 2 3 4 5
comments
print report bad tab
guest
You may want to rate the tab now too:
select rating
Wanna post a correction for this tab? Suggest correction