Oops, an error
Loading. Please wait.

Fora Do Común Tab

50 views 3 this week
no commentswrite comment
1 2 3 4 5
3 more votes to show rating
add to favorites
×
Save as Personal and add changes to this tab that will be seen only by you. Learn more ›
×
You can save this tab as Personal to edit and correct it or add notes. All changes will be seen only by you. Learn more »
save as personal
new!
launch autoscroll
font size
0
reset
how to read this tab
guitar tuner
Autoscroll
slow
fast
+/-
esc
set tempo
stop
Gusttavo Lima es de nacionalidad Brasileña
nose por que sale la banderita de argentina

bueno es una linda cancion cuando la tocan en piano =),
se la dedico a mis amigas
Athalia C, Maria José E, Delicia, Dani Subelza, Romina G y mi sis Nadia G
se cuidan, las kiero mucho!!! un fuerte abrazo

   E            C         G           D

E-0-2/3-2-3-2-3--2-0-----0-----5/7-7-7-7---5-5-5-3-2-0
B--------------------3-3---3--------------------------
G-----------------------------------------------------
D-----------------------------------------------------
A-----------------------------------------------------
E-----------------------------------------------------

   E            C         G           D
E-0-2/3-2-3-2-3--2-0-----0-----5/7-7-7-7---5---3---2-0
B--------------------3-3---3--------------------------
G-----------------------------------------------------
D-----------------------------------------------------
A-----------------------------------------------------
E-----------------------------------------------------

Em                   C
A nossa história é longa
           G
Mas eu resumi
                  D
Perguntas sem respostas
Te respondo sim,

Em            C
Entrada sem saída
           G
Do meu coração
                 D
Depois de enfeitiçado
Nessa ilusão

Em
Eu sei que pra você
C            G
É facil superar
            D
Em outra pessoa
Em qualquer lugar

Em          C
A tática perfeita
             G
Eu vou elaborar
            D
Em outra ocasião
               C
A gente se reencontrar
    D
Se amar

Em                C
Você brincou com fogo
                G
E depois caiu fora
              D
Saiu da minha vida
                   Em
O que que eu faço agora?
                C               G
Menina estou a ponto de enlouquecer
           D
Fora do comum
                      Em
Não posso te esquecer.

SE REPITE TODO


cualquier duda me escriben a
jos_rm@
Saludos
Suggest correction
Give kudos to tab author, rate the tab!
1 2 3 4 5
comments
print report bad tab
guest
Wanna post a correction for this tab? Suggest correction