Oops, an error
Loading. Please wait.

Detrás De Ti Tab

311 views 1 this week
no commentswrite comment
1 2 3 4 5
3 more votes to show rating
add to favorites
×
Save as Personal and add changes to this tab that will be seen only by you. Learn more ›
×
You can save this tab as Personal to edit and correct it or add notes. All changes will be seen only by you. Learn more »
save as personal
new!
launch autoscroll
font size
0
reset
how to read this tab
guitar tuner
Autoscroll
slow
fast
+/-
esc
set tempo
stop
(En el audio original, la afinación es algo menor a 440...)


INTRO

|-------------2-----------------|
|----------0-----0-----0--------|
|-------3-----------3-----3-----|
|----4--------------------------|  X 3
|-------------------------------|
|-------------------------------|


(En algunos fragmentos, está la notación del acorde base, no el arpegio)


|---------------2-0-------------------------2--0-------
|-------------0------3-------------2--0--3-------------
|----------0---------------------0---------------------
|---4-3-2----------------------2-----------------------
|---------------------------0--------------------------
|------------------------------------------------------


|-------------------------------------------------------0---0-----
|-----------7--5------------------3--2----------------1---1---1---
|--------6-------7-------------2--------4-----------4-------------
|-----7---------------------4--------------------2----------------
|--5------------------5-4-2-------------------0-------------------
|-----------------------------------------------------------------


|------------5-----------7-----------------------------5----------
|---4-5--7-8----7-----8-----10--8----8--11-10-8----7-------8-7----
|---------------------7--------------7-------------6--------------
|---------------------9--------------9-------------7--------------
|---------------------7--------------7-------------5--------------
|-----------------------------------------------------------------


|------------10--7-----------------3-2-0----2-0-----2-----7------2---7------
|---7--------------10--8--7-----5--------5------0---2-----7------2---7------
|---6---------------------------4--------4----------2-----7------2---7------
|---7---------------------------5--------5----------4-----9------4---9------
|---5---------------------------4--------4----------2-----7------2---7------
|---------------------------------------------------------------------------


|--7----------------2-----------------------2----------------|
|--7-------------0-----0-----0------------0---0----0---------|
|--7----------3-----------3-----3-------3-------3-----3------|
|--9--------4-------------------------4----------------------|
|--7---7-8---------------------------------------------------|
|------------------------------------------------------------|


[A partir de acá, pongo las posiciones de los acordes
-y algunos de sus nombres-, queda en cada uno/una de ustedes
 reconstruir el arpegio]


   Detrás de ti hay algo esperando

      Bm7           F#m7      Gmaj7

|------2-----------------------------------------------
|------3-------------2---------3-----------------------
|------2-------------2---------4-----------------------
|------4-------------2---------4-----------------------
|------2-------------4---------------------------------
|--------------------2---------3-----------------------


   Puede atrapar tu amor y no dejar

    Em7          A7           Dmaj7

|---7---------------------------5----------------------
|---8------------5--------------7----------------------
|---7------------6--------------6----------------------
|---9------------5--------------7----------------------
|---7------------7--------------5----------------------
|----------------5-------------------------------------


Que llegue a mí, que dé sus frutos

            Bm7

|-------------------------------------------------------
|------------7----------------5-------------------------
|------------7----------------4-------------------------
|------------7----------------5-------------------------
|------------9----------------4-------------------------
|------------7------------------------------------------


   Que sea nuestro gran amor


|------------------------2------------7-----------------
|------------2-----------3------------7-----------------
|------------3-----------2------------7-----------------
|------------2-----------4------------9-----------------
|------------------------2------------7-----------------
|------------2------------------------------------------


(Retoma y repite INTRO...)


Detrás de ti hay algo esperando
Puede atrapar tu amor y no dejar
Que llegue a mí, que dé sus frutos
Que sea nuestro gran amor


(Segunda estrofa cantada, "ídem" que la primera)

Si en el sendero, te veo, yo quiero
Besarte con mis ojos y con el viento
Del mar peinar tu pelo...


Para amar solo es preciso dar...

(Van los acordes con que arma el arpegio)

|--------------------------2------
|------5-------------4-----3------
|------5-------------5-----4------
|------5-------------4-----4------
|--------------------5------------
|------5-------------------3------


Tienes que desenredar

(Van los acordes con que arma el arpegio)

|-----------------------------------------------------
|---3-------3-------3---------------------------------
|---2-------3-------2---------------------------------
|---4-------4-------4---------------------------------
|---2-------2-------2---------------------------------
|-----------------------------------------------------


A tu corazón del mal de este mundo


|---------2--------7----------------------------------
|---------3--------8----------------------------------
|---------2--------7----------------------------------
|---------4--------9----------------------------------
|---------2--------7----------------------------------
|-----------------------------------------------------


Y entonces me amarás (tienes)

|----------------5----------5--------------------------
|-----5----------7-----5/7--7--------------------------
|-----6----------6-----6-------------------------------
|-----5----------7-------------------------------------
|-----7----------5-------------------------------------
|-----5------------------------------------------------


(Ídem)

No pienses que esto es mentira
Decirte poesías, que me importa
Esta vida es corta y no nos va a esperar

Tienes que desenredar?


(Retoma comienzo de INTRO y va a Estrofa, repite... )


¡Gracias Príncipe!
Suggest correction
Give kudos to tab author, rate the tab!
1 2 3 4 5
comments
print report bad tab
guest
Wanna post a correction for this tab? Suggest correction