Oops, an error
Loading. Please wait.

El Orden De Los Sonidos Tab

57 views 1 this week
no commentswrite comment
1 2 3 4 5
3 more votes to show rating
add to favorites
launch autoscroll
font size
0
reset
how to read this tab
guitar tuner
×
Best way to learn
"El Orden De Los Sonidos"
Autoscroll
slow
fast
+/-
esc
set tempo
stop
INTRO X 2

       Bm7                                    Am7/9
|---------2--------------------------------------------0----
|---------3--------------------------------------------1----
|---------2----------------2-2---2----2-4-2------------4----
|---------4---------0-2-4------4------------4-2-0-2----2----
|--0-2----2----0-2-----------------------------------0-0----
|-----------------------------------------------------------


                 Bm7
|--------------------2----------------|
|--------------------3----------------|
|--------------------2----------------|
|------0-2-4-2-0-----4----------------|
|-0-2------------2---2----5-2-0-------|
|-------------------------------2-----|


ESTROFA

          He ordenado los sonidos como el viento ordena...

      Bm7             Dmaj7            Em7
|-------2------------------5----------------0-----------------------
|-------3------------------7----------------3---------------3-------
|-------2------------------6----------------0---------------3-------
|-------4------------------7----------------2---------------2-------
|-0-2---2------------------5----------------2-----------------------
|-------------------------------------------0------------2----------


          Las hojas sobre las piedras que te lastiman los pies...

      Bm7             Dmaj7            Em7
|-------2------------------5----------------0-----------------------
|-------3------------------7----------------3---------------3-------
|-------2------------------6----------------0---------------3-------
|-------4------------------7----------------2---------------2-------
|-0-2---2------------------5----------------2-----------------------
|-------------------------------------------0------------2----------


         Tu camino pena-arena... que chorrea en tu rostro

      Bm7           Cmaj7   Bmaj7        C#m7
|-------2------------------3-------2-------------4------7-4------------------|
|-------3------------------5-------4-------------5----------7-5--------------|
|-------2------------------4-------3-------------4--------------6-4----------|
|-------4------------------5-------4-------------6------------------6-4------|
|-------2------------------3-------2-------------4----------------------7-4--|
|----------------------------------------------------------------------------|


REPITE INTRO X 2

REPITE ESTROFA

REPITE INTRO X 2 pero luego del Am7/9 engancha así...

|--------------------|
|--------------------|
|-------------3------|
|-------0-2-4---5----|
|--0-2---------------|
|--------------------|


ESTRIBILLO


Se guardarán tus tristezas en un gran libro de sal...

  Bmaj7          Emaj7         Dmaj7
|--2-----------------7----------------5-----------
|--4-----------------9----------------7-----------
|--3-----------------8----------------6-----------
|--4-----------------9----------------7-----------
|--2-----------------7----------------5-----------
|-------------------------------------------------


Se guardarán como agua en la niebla del canal...

      Dmaj7    Emaj7      Bmaj7            Bm7
|-------5-----------7----------2------------------2----------
|-------7-----------9----------4------------------3----------
|-------6-----------8----------3------------------2----------
|-------7-----------9----------4------------------4----------
|-------5-----------7----------2------------------2----------
|------------------------------------------------------------


Hasta que llegues a verme y ahí entre soles y estrellas...

          Cmaj7      C#m7              Dmaj7
|-----------3------------4---------------------5----------
|-----------5------------5---------------------7----------
|-----------4------------4---------------------6----------
|-----------5------------6---------------------7----------
|-----------3------------4---------------------5----------
|---------------------------------------------------------


A tu bondad que es enorme... y a tus internas bellezas...

  D#m7          Emaj7            Bm7  C#m7  Bmaj7
|--6-----------------7------------------2----4------2----
|--7-----------------9------------------3----5------4----
|--6-----------------8------------------2----4------3----
|--8-----------------9------------------4----6------4----
|--6-----------------7------------------2----4------2----
|--------------------------------------------------------


Se guardarán tus tristezas en un gran libro de sal...

  Bmaj7         Emaj7          Dmaj7
|--2-----------------7-----------------5-----------
|--4-----------------9-----------------7-----------
|--3-----------------8-----------------6-----------
|--4-----------------9-----------------7-----------
|--2-----------------7-----------------5-----------
|--------------------------------------------------


Se guardarán como agua en la niebla del canal...

      Dmaj7    Emaj7      Bmaj7         Bm7
|-------5-----------7----------2----------------2--------
|-------7-----------9----------4----------------3--------
|-------6-----------8----------3----------------2--------
|-------7-----------9----------4----------------4--------
|-------5-----------7----------2----------------2--------
|--------------------------------------------------------


Hasta que llegues a verme y ahí entre soles y estrellas...

          Cmaj7      C#m7              Dmaj7
|-----------3------------4---------------------5----------
|-----------5------------5---------------------7----------
|-----------4------------4---------------------6----------
|-----------5------------6---------------------7----------
|-----------3------------4---------------------5----------
|---------------------------------------------------------


A tu bondad que es enorme... y a tus internas bellezas...

  D#m7          Emaj7       Bm7    C#m7  Bmaj7    Bm7
|--6-----------------7-----------2--------4------2--------2---
|--7-----------------9-----------3--------5------4--------3---
|--6-----------------8-----------2--------4------3--------2---
|--8-----------------9-----------4--------6------4--------4---
|--6-----------------7-----------2--------4------2--------2---
|-------------------------------------------------------------


Y a tu camino de invierno... se le entregará el final...

               Cmaj7      F#7(b13)           Bm7
|------------------3-----------2---------------------2--------------
|------------------5-----------3---------------------3--------------
|------------------4-----------3---------------------2--------------
|------------------5-----------2---------------------4--------------
|------------------3-----------x---------------------2----5---0-2-5-
|------------------------------2----------------------------2-------


¡Gracias Príncipe!
Suggest correction
Give kudos to tab author, rate the tab!
1 2 3 4 5
comments
print report bad tab
guest
You may want to rate the tab now too:
select rating
Wanna post a correction for this tab? Suggest correction