Oops, an error
Loading. Please wait.

Fiebre, Fuego, Revelación Tab

version 1
version 1

Whole song

290 views 3 this week
no commentswrite comment
1 2 3 4 5
2 more votes to show rating
add to favorites
×
Save as Personal and add changes to this tab that will be seen only by you. Learn more ›
×
You can save this tab as Personal to edit and correct it or add notes. All changes will be seen only by you. Learn more »
save as personal
new!
launch autoscroll
font size
0
reset
how to read this tab
guitar tuner
Autoscroll
slow
fast
+/-
esc
set tempo
stop
Hola que tal! Como lo prometido es deuda aquí les va otra rola de Gustavo, del 
soundtrack de Amores Perros, es la de fiebre fuego 
y revelación, les doy el mismo consejo: si 
la tocan con más feeling se oye mejor, aquí les va.


e---------------------------------------------------
b------8---8/12----13\12--10---12\10--8----0--0-----
g---------------------------------------------------
d---------------------------------------------------
a---------------------------------------------------
e--0------------------------------------------------


e-----------------------------------------2---------
b---8---8/12----13\12--10---12\10--8----0----5-5----
g---------------------------------------------------
d---------------------------------------------------
a---------------------------------------------------
e---------------------------------------------------

e----------------------------------------------------
b----------8----12---10-----7------------------------
g-----------------------------------9----------------
d--------9----9-----------9------9-------------------
a----------------------------------------------------
e--0--0---------------------------------------------

e----------------------------------------------------
b----------8----12---10-----7------------------------
g-----------------------------------9----------------
d--------9----9-----------9------9-------------------
a----------------------------------------------------
e------0---------------------------------------------

e----------------------------------------------------
b----------------------------------------------------
g---------5-----9---7-----4------------4-------------
d------------------------------7---------------------
a-------7----7---------7-----7-------7---------------
e---5------------------------------------------------

e----------------------------------------------------
b----------8----12---10-----7------------------------
g-----------------------------------9----------------
d--------9----9-----------9------9-------------------
a----------------------------------------------------
e----0-----------------------------------------------

e----------------------------------------------------
b----------8----12---10-----7------------------------
g-----------------------------------9-----------9----
d--------9----9-----------9------9----------9--------
a----------------------------------------------------
e-----0----------------------------------------------


Ahí esta toda la canción, espero que la disfruten,

nos vemos


ohsi@


Johnny
Suggest correction
Give kudos to tab author, rate the tab!
1 2 3 4 5
comments
print report bad tab
guest
Wanna post a correction for this tab? Suggest correction