Oops, an error
Loading. Please wait.

Fiebre, Fuego, Revelación Tab

version 2
version 2

Whole song

107 views 3 this week
no commentswrite comment
1 2 3 4 5
3 more votes to show rating
add to favorites
launch autoscroll
font size
0
reset
how to read this tab
guitar tuner
Autoscroll
slow
fast
+/-
esc
set tempo
stop
Help us to improve Ultimate-Guitar.com Take our survey!
×
hola a todos los guitarristas de por aqui!!
esta es mi primera tablatura asi que si notan alguna falla por favor aganmela saber.


e--------3---3/7---8/7---5---7/5---3---0--0------------
b------------------------------------------------------
g------------------------------------------------------
d------------------------------------------------------
a------------------------------------------------------
e----0-------------------------------------------------


e----3---3/7---8/7---5---5/7---3----2---0--0-----------
b------------------------------------------------------
g------------------------------------------------------
d---------------------------------0--------------------
a------------------------------------------------------
e------------------------------------------------------


e-----------3----7---5-----2-----0---------------------
b------------------------------------------------------
g------------------------------------------------------
d--------2----5---------0------------------------------
a-----------------------------3------------------------
e--0--0------------------------------------------------


e-----------3----7---5-----2-----0---------------------
b------------------------------------------------------
g------------------------------------------------------
d--------2----5---------0------------------------------
a-----------------------------3------------------------
e-----0------------------------------------------------


e------------------------------------------------------
b---------1----5--3----0-----------0-------------------
g---------------------------2--------------------------
d------2----2-------2----2------2----------------------
a---0--------------------------------------------------
e------------------------------------------------------


e--------3----7---5-----2-----0------------------------
b------------------------------------------------------
g------------------------------------------------------
d-----2----5---------0---------------------------------
a--------------------------3---------------------------
e--0---------------------------------------------------


e--------3----7---5-----2-----0-------0----------------
b------------------------------------------------------
g------------------------------------------------------
d-----2----5---------0---------------------------------
a--------------------------3-------3-------------------
e--0---------------------------------------------------


en la musica hay que jugar con las emociones.
si a esta rola le ponen algo de melancolia va a sonar mejor.


sugerencias,comentarios favor de mandarlos a este mail:

                  
                            
                  preguuntame_k@
                   


 'Ram' Hernández


                            ciao!!!!
Suggest correction
Give kudos to tab author, rate the tab!
1 2 3 4 5
comments
print report bad tab
guest
You may want to rate the tab now too:
select rating
Wanna post a correction for this tab? Suggest correction