Oops, an error
Loading. Please wait.

No Cambiarás Tab

by T Con T
55 views 1 this week
no commentswrite comment
1 2 3 4 5
3 more votes to show rating
add to favorites
launch autoscroll
font size
0
reset
how to read this tab
guitar tuner
×
Best way to learn
"No Cambiarás"
Autoscroll
slow
fast
+/-
esc
set tempo
stop
INTRO: 

         C         F              G         C           Am
E ---0-----------3-3-1-1-0-1----------------1-0-0---0-----
B -----3-1-----1--------------3-1-0-----0-3-------3---3-1-
G -0---------0------------------------0-------------------
D --------------------------------------------------------
A --------------------------------------------------------
E --------------------------------------------------------

         D               F         G
E -------0---------------------------
B -----1---3-3-1-3-----0-1---1-0-1-3-
G ---2---------------2---------------
D -2---------------------------------
A -----------------------------------
E -----------------------------------

     F                Dm                 G
E -3-3-1-1-0-0------3-3-1-1-0-0---------------1-----
B -------------3-3--------------3-3--0-1-3------3-1-
G ------------------------------------------0-------
D --------------------------------------------------
A --------------------------------------------------
E --------------------------------------------------

C A# F G C

C                     F     
Hoy presiento que tu ya no volverás 
G                 C          
está dicho tu ya no regresarás 
      A     Dm               G
pero sé que tú también me extrañarás 

C               F
Mirando tu foto me pongo a pensar 
G                  C
en esos días de tanta felicidad 
       A      Dm
como ayer ya nunca será igual 
      G           C
pues tu no cambiarás

C         Em            Gm
Vete vete vete ya (vete ya) 
             A
vete y no vuelvas más (no vuelvas más)
 Dm        F             G
porque mi corazón no es para vos

SE REPITE EL INTRO

A veces el amor no se puede entender 
te da alegrías y penas a la vez 
pero siempre te da una nueva oportunidad

Ahora vienes y me pides regresar 
no es tan fácil no lo voy a aceptar 
sabes que no lo haré oh no lo haré
no lo haré

E -------------------------------------------
B -------------------------------------------
G -------------------0------------0-0---0----
D -----------------0----3-3-0-2-3-----3---3--
A -3-3---0-2-3-3-----------------------------
E -----3---------3---------------------------

E -------------------------------------------
B -------------------------------------------
G -------------------0------------0-0---0----
D -----------------0----3-3-0-2-3-----3---3--
A -3-3---0-2-3-3-----------------------------
E -----3---------3---------------------------

Vete vete vete ya (vete ya) 
vete y no vuelvas más (no vuelvas más)
porque mi corazón no es para vos

Vete vete vete ya (vete ya) 
vete y no vuelvas más (no vuelvas más)
porque mi corazón no es para vos
Suggest correction
Give kudos to tab author, rate the tab!
1 2 3 4 5
comments
print report bad tab
guest
You may want to rate the tab now too:
select rating
Wanna post a correction for this tab? Suggest correction