Oops, an error
Loading. Please wait.

Buscando Amerikua Chords

14 views 1 this week
no commentswrite comment
1 2 3 4 5
3 more votes to show rating
add to favorites
launch autoscroll
font size
0
reset
transpose
0
reset
display chords
guitar tuner
Autoscroll
slow
fast
+/-
esc
set tempo
stop
Help us to improve Ultimate-Guitar.com Take our survey!
×
Intro:

Repite 2 veces:
E) --0-0-------------------0-0--------------------------------------------
B) ------3-1-----1--------------3-1-----1---------------------------------
G) ----------2-0---2-0-2------------2-0---2-0-2---------------------------
D) -----------------------------------------------------------------5-----
A) ------------------------------------------------7--7--5--2--5----3--7--
E) ------------------------------------------------5--5--3--0--3-------5--


Am
En busca del corazon sudaca
fui hasta la orilla del Titicaca

G
Tupac Amarú

Y cara a cara con la tristeza
vi al indio con su naturaleza
Tupac Amarú

E) -----------------------------------------------------------------------
B) -----------------------------------------------------------------------
G) -----------------------------------------------------------------------
D) -----------------------------------------------------------------------
A) ---6--7---2-------6--7---2-5-----6--7---2------6--7---2-5--------------
E) ---4--5---0-------4--5---0-3-----4--5---0------4--5---0-3--------------
Fuerza!        Fuerza!        Fuerza!       Fuerza!  

Intro

Inti Illimani que me llevas
Buscando Amerikua hasta la paz
Tupac Amarú
De Santa Cruz que no te encontre
al cielo andino ¿latino que?
Tupac Amarú

Fuerza!

Intro

Bajo el pie del poder latino
se muere el indio y no el asesino
Tupac Amarú
Y en Uruguay que no tiene nada
la sangre indigena traicionada
Tupac Amarú

Y yo tan hibrido entremazclado
prtugues-tano, hispanoparlante
como euro-yankee culturizado
paria del mercosur habitante

Fuerza!


NOTA: Esta canción pertenece a la página ACORDES DEL URUGUAY
Suggest correction
Give kudos to tab author, rate the tab!
1 2 3 4 5
comments
print report bad tab
guest
You may want to rate the tab now too:
select rating
Wanna post a correction for this tab? Suggest correction