Oops, an error
Loading. Please wait.
14 views 1 this week
no commentswrite comment
1 2 3 4 5
3 more votes to show rating
add to favorites
launch autoscroll
font size
0
reset
how to read this tab
guitar tuner
×
Best way to learn
"Epitafio"
Autoscroll
slow
fast
+/-
esc
set tempo
stop
Acá les dejo un temón de La Tabaré, es la primera versión,
la posta. Para hacerlo bien es necesario que tengan la palanca
de vibrato que la usa a cara de león.


NOTACIÓN:

 /: deslizar
(): dejar sonar
 b: estirar la cuerda
 v: vibrato con palanca
 ~: vibrato


INTRO

E|-----------------------------------------------|
B|--------------------------------------10-(12)b-|
G|-----------------------------------------------|
D|---7-7--6-7--7/10--9-9--7-7--6-(7)v------------|
A|---7-7--6-7--7/10--9-9--7-7--6-(7)v------------|
E|---5-5--4-5--5/8---7-7--5-5--4-(5)v------------|


E|----------------------------------------10v----|
B|-----------------------------------------------|
G|-----------------------------------------------|
D|---7-7--6-7--7/10--9-9--7-7--6-(7)-------------|
A|---7-7--6-7--7/10--9-9--7-7--6-(7)-------------|
E|---5-5--4-5--5/8---7-7--5-5--4-(5)-------------|


E|-----------------------------------------------|
B|-----------------------------------------------|
G|-----------------------------------------------|
D|---7-7--6-7--7/10--9-9--7-7--6-(7)v------------|
A|---7-7--6-7--7/10--9-9--7-7--6-(7)v------------|
E|---5-5--4-5--5/8---7-7--5-5--4-(5)v------------|

     acá dale hasta que las cuerdas bajen del todo


E|-------------------------------------------|
B|-------------------------------------------|
G|---5-5-5--7--------------------------------|
D|---5-5-5--7----10--9-9--7-7--6-7-----------|X4
A|---3-3-3--5----10--9-9--7-7--6-7-----------|
E|----------------8--7-7--5-5--4-5-----------|


VERSO


Por favor no manden flores
por favor no estén de duelo
E|-------------------------------------------|
B|-------------------------------------------|
G|---5-5-5--7--------------------------------|X2
D|---5-5-5--7----10--9-9--7-7--6-7-----------|
A|---3-3-3--5----10--9-9--7-7--6-7-----------|
E|----------------8--7-7--5-5--4-5-----------|


rocanrol y más colores
E|---------------------------------------------|
B|---------------------------------------------|
G|---------------------------------------------|
D|----2----3-----10--9-9--7-7--6-7-------------|
A|----2----3-----10--9-9--7-7--6-7-------------|
E|--0----1--------8--7-7--5-5--4-5-------------|

cuando dios me lleve al cielo
E|---------------------------------------------|
B|---------------------------------------------|
G|---5-5-5--7----------------------------------|
D|---5-5-5--7------10--9-9--7-7--6-7-----------|
A|---3-3-3--5------10--9-9--7-7--6-7-----------|
E|------------------8--7-7--5-5--4-5-----------|

E|---------------------------------------------|
B|----------------------------------10~--------|
G|----5--2-----7--4-----10--7------------------|
D|----------3--------5---------9---------------|
A|---------------------------------------------|
E|---------------------------------------------|


Yo no quiero que me velen
ni que lloren en mi entierro
E|--------------------------------------------|
B|--------------------------------------------|
G|---5-5-5--7---------------------------------|X2
D|---5-5-5--7-----10--9-9--7-7--6-7-----------|
A|---3-3-3--5-----10--9-9--7-7--6-7-----------|
E|-----------------8--7-7--5-5--4-5-----------|

porque estar muerto no duele
E|---------------------------------------------|
B|---------------------------------------------|
G|---------------------------------------------|
D|----2----3-----10--9-9--7-7--6-7-------------|
A|----2----3-----10--9-9--7-7--6-7-------------|
E|--0----1--------8--7-7--5-5--4-5-------------|

duele esta vida de perro
E|---------------------------------------------|
B|---------------------------------------------|
G|---5-5-5--7-------14~--12-----12-------------|
D|---5-5-5--7---------------14-----14----------|
A|---3-3-3--5-------------------------15/17~---|
E|---------------------------------------------|


Cuando yo me muera quiero
que se caguen de la risa
E|---------------------------------------------|
B|---------------------------------------------|
G|---5-5-5--7----------------------------------|X2
D|---5-5-5--7------10--9-9--7-7--6-7-----------|
A|---3-3-3--5------10--9-9--7-7--6-7-----------|
E|------------------8--7-7--5-5--4-5-----------|

mis huesos al ajuero
E|---------------------------------------------|
B|---------------------------------------------|
G|---------------------------------------------|
D|----2----3-----10--9-9--7-7--6-7-------------|
A|----2----3-----10--9-9--7-7--6-7-------------|
E|--0----1--------8--7-7--5-5--4-5-------------|


y a la mierda mis cenizas
E|---------------------------------------------|
B|---------------------------------------------|
G|---5-5-5--7----------------------------------|
D|---5-5-5--7------10--9-9--7-7--6-7-----------|
A|---3-3-3--5------10--9-9--7-7--6-7-----------|
E|------------------8--7-7--5-5--4-5-----------|

E|---------------------------------------------|
B|----------------------------------10~--------|
G|----5--2-----7--4-----10--7------------------|
D|----------3--------5---------9---------------|
A|---------------------------------------------|
E|---------------------------------------------|


Dios me va a estar esperando
y me muero (de alegría)
E|---------------------------------------------|
B|---------------------------------------------|
G|---5-5-5--7----------------------------------|
D|---5-5-5--7------10--9-9--7-7--6-7-----------|X2
A|---3-3-3--5------10--9-9--7-7--6-7-----------|
E|------------------8--7-7--5-5--4-5-----------|


mi almita se irá volando
E|---------------------------------------------|
B|---------------------------------------------|
G|---------------------------------------------|
D|----2----3-----10--9-9--7-7--6-7-------------|
A|----2----3-----10--9-9--7-7--6-7-------------|
E|--0----1--------8--7-7--5-5--4-5-------------|


lejos de esta porquería
E|---------------------------------------------|
B|---------------------------------------------|
G|---5-5-5--7----------------------------------|
D|---5-5-5--7------10--9-9--7-7--6-7-----------|
A|---3-3-3--5------10--9-9--7-7--6-7-----------|
E|------------------8--7-7--5-5--4-5-----------|


ESTRIBILLO

¡Te deseo, te deseo..
el cementerio del buceo!

¡Te deseo, un buen final
para siempre en el central!

¡Un final ?felice morte?
enterrado en el del norte!

      A        F#       B        E
E|------------------------------------------|
B|------------------------------------------|
G|------------------------------------------|
D|---7-7-7-7--4-4-4-4--9-9-9-9--2-2-2-2-----|X4
A|---7-7-7-7--4-4-4-4--9-9-9-9--2-2-2-2-----|
E|---5-5-5-5--2-2-2-2--7-7-7-7--0-0-0-0-----|

Te deseo un buen ¡chau! ¡chau!
San Tabaré?
Q.E.P.D
E|-----------------------------------------|
B|-----------------------------------------|
G|-----------------------------------------|
D|---7-7---4-4-4-4--9-9-9-9--2-2-2-2-------|
A|---7-7---4-4-4-4--9-9-9-9--2-2-2-2-------|
E|---5-5---2-2-2-2--7-7-7-7--0-0-0-0-------|

E|----------------------|
B|----------------------|
G|---5-5-5--7v----------|
D|---5-5-5--7v----------|X4
A|---3-3-3--5v----------|
E|----------------------|

E|-----------------------------------------|
B|-----------------------------------------|
G|---5-5-5--7------------------------------|
D|---5-5-5--7------10--9-9--7-7--6-7-------|X3
A|---3-3-3--5------10--9-9--7-7--6-7-------|
E|------------------8--7-7--5-5--4-5-------|

E|--------------------|
B|--------------------|
G|---5-5-5--7v--------|
D|---5-5-5--7v--------|
A|---3-3-3--5v--------|
E|--------------------|


El tema creo que está perfecto pero por alguna
duda manden un mail. Aguante Corte Loko rocanrol!!
Suggest correction
Give kudos to tab author, rate the tab!
1 2 3 4 5
comments
print report bad tab
guest
You may want to rate the tab now too:
select rating
Wanna post a correction for this tab? Suggest correction