Oops, an error
Loading. Please wait.

Fuckin' Soneto Dequerusa Chords

version 2
version 2

Whole song

23 views 1 this week
no commentswrite comment
1 2 3 4 5
3 more votes to show rating
add to favorites
launch autoscroll
font size
0
reset
transpose
0
reset
simplify chords
display chords
guitar tuner
×
Best way to learn
"Fuckin' Soneto Dequerusa"
Autoscroll
slow
fast
+/-
esc
set tempo
stop
Intro:                      B     Bb    A
E---------------------------2-----1-----0-----
B--------------0------------4-----3-----2-----
G---1---1---2-----2----1----4-----3-----2-----
D---------------------------4-----3-----2-----
A---------------------------2-----1-----0-----
E---------------------------------------------
                                 E

E----------------------------------------------
B---2---2---4---5---4-----2--------------------
G---2----------------------------1--1-- 2----4-
D---2----------------------------2-------------
A--------------------------------2-------------
E--------------------------------0-------------

                 B        Bb    A                        E Esus4 E
E----------------2----2---1-----0----------------------------------
B----------------4----4---3-----2----------------------------------
G---2----1-------4----4---3-----2--------------1----------1---2---1
D----------------4----4---3-----2---2---2---4-----4--2----2---2---2
A----------------2----2---2-----0-------------------------2---2---2
E---------------------------------------------------------0---0---0


Am G -E


E                   B
Dale milonga que la va fulera
A                E
A
zapatazos de amor literal
A                C#5-B-A-G#5   (bajada)
Pegando debute en la bacanal
F#m                         A
De delicias mundano-patoteras


Haceme la gamba dame un vitén
Que viene sin morfe la yeca 2000
Patéame tamango, otra vez por gil
Fiame un poco de vida alma zen

Bbm             Am          G#m
Vos Río de la Plata re Chiflado
G#m                Gm             F#m
Vos que me hiciste aprendiz de faquir
                 B              E
Por vos me enamoré y quedé piantado

Intro

Am G -E

(Tango)
Dale milonga que la va fulera
A zapatazos de amor literal
Pegando debute en la bacanal
De delicias mundano-patoteras

(Machaque)
E                 B
Y dequerusa que una noche de estas
A                               E
Cuando es milonga el eclipse lunar
A                 C#5-B5-A5-G#5
Voy a llevarme la nostalgia a puestas
F#m        A
De bar en bar


Me pianta un lagrimón verte elixir
Por vos la fui quedando resagado
¡Pucha metejón! Pasión souvenir.

Intro
Final
E-A x3
E-B-E

Recitado

Y de querusa que una noche de estas
De apocalipsis en farra virtual
Voy a fugarme con las broncas puestas
Al rock final
Suggest correction
Give kudos to tab author, rate the tab!
1 2 3 4 5
comments
print report bad tab
guest
You may want to rate the tab now too:
select rating
Wanna post a correction for this tab? Suggest correction