Oops, an error
Loading. Please wait.

Ojalá (Ya No Será) Tab

25 views 1 this week
no commentswrite comment
1 2 3 4 5
3 more votes to show rating
add to favorites
launch autoscroll
font size
0
reset
how to read this tab
guitar tuner
Autoscroll
slow
fast
+/-
esc
set tempo
stop
Help us to improve Ultimate-Guitar.com Take our survey!
×
Acá les dejo mi segundo tema de la tabaré.
Hace poco empece a escuchar esta banda
y la verdad es que esta muy buena
espero que les guste esta versión de ojalá
Tienes algunas pequeñas variaciones conrespecto
a la otra versión

Intro:

E--------------------------------------------------------------------
B--------------------------------------------------------------------
G--------------------------------------------------------------------
D-----------------7--------------------------------------------------
A----7-7--9-10-10---10-9--5-7-9---5--5--7-9-9-10-9--7--7--9-10-------
E--------------------------------------------------------------------


Em
Ya no será de enemigos, será
de besos y de guiñadas
D
Ya no será de triunfar no será
                 Em
mas que de todos igual
Em
Ya no será del mas fuerte, será
de los que ofrecen el alma
D
Ya no será en tu bolsillo, será
                     Em
como un placer genital


Estribillo:


Em                      D
Ya no será tu gobierno, ya no será
D                      Em
Ya no será tu negocio, ya no será
Em                      D
Ya no será chupamedias, ya no será
D                      Em
Ya no será puercoespin!

E----------------------------------------------------------------------
B----------------------------------------------------------------------
G----------------------------------------------------------------------
D--------------------7-------------------------------------------------
A----7-7--9-10-10-10---10-9--5-7-9---5--5--7-9-9-9-10-9-----7--7--9-10-
E----------------------------------------------------------------------

E-------------------------------------------------------------
B-------------------------------------------------------------
G-------------------------------------------------------------
D--------------------7----------------------------------------
A----7-7--9-10-10-10---10-9--5-7-9---5--5--7-9-9-9-10-9----7--
E-------------------------------------------------------------

(este punteo se hace al mismo tiempo que el estribillo,
es muy parecido a la intro pero cambia en algunos tiempos)


Em            D     D             Em
Ya no será pegando, ya no será pidiendo
Em            D     D               Em
Ya no será llorando, ya no será escupiendo
Em            D     D
Ya no será pegando, ya no será pidiendo
Em              D     D               Em
Ya no será pagando, ya no será escupiendo

Intro

Ya no será funebrero, será
Un paraíso entre dientes
Ya no será pedregullo, será
Como de lunas al ras
Ya no será prepotencia, serán
Mimos surcando la vida
Ya no será obligatorio, será
Lo que vos quieras jugar


Em                                  D D
Vamo´a tener que encontrarnos
                                     Em
vamo´a tener que aprender a cambiar
                         D D
y aprender a tolerarnos
pa´aprender lo que no hay que tolerar


Em                      D
Ya no será tu gobierno, ya no será
D                      Em
Ya no será tu negocio, ya no será
Em                      D
Ya no será chupamedias, ya no será
D                      Em
Ya no será puercoespin!

Em                                 D
Bajando por la rambla se escuchan cantos
D                                   Em
entre penas y encantos que tiene el mar
se que se me hizo tarde y ya esta aclarando ¡ojala!
que me estes esperando pa´festejar ¡ojala!

  D Em F# G G#
E-------------------------
B-------------------------
G-------------------------
D-------------------------
A-5/7-7-7-9-10------------
E-------------------------

(Esta bajadita también se puede hacer con los acordes
Correspondientes)

Ya no será del cafisho ya no será
Ya no será pan y circo ya no será
Ya no será en penitencia ya no será
Ya no será perejil!

Em            D     D             Em
Ya no será pegando, ya no será pidiendo
Em            D     D               Em
Ya no será llorando, ya no será escupiendo
Em            D     D
Ya no será pegando, ya no será pidiendo
Em              D     D               Em
Ya no será pagando, ya no será escupiendo

Em                                  D D
Vamo´a tener que encontrarnos
                                     Em
vamo´a tener que aprender a cambiar
                         D D
y aprender a tolerarnos
pa´aprender lo que no hay que tolerar


Em                      D
Ya no será tu gobierno, ya no será
D                      Em
Ya no será tu negocio, ya no será
Em                      D
Ya no será chupamedias, ya no será
D                      Em
Ya no será puercoespin!


"Un Candombe en la cabeza que no es para bailar"
Suggest correction
Give kudos to tab author, rate the tab!
1 2 3 4 5
comments
print report bad tab
guest
You may want to rate the tab now too:
select rating
Wanna post a correction for this tab? Suggest correction