Oops, an error
Loading. Please wait.

Que Amigo Encontré Tab

22 views 1 this week
no commentswrite comment
1 2 3 4 5
3 more votes to show rating
add to favorites
launch autoscroll
font size
0
reset
how to read this tab
guitar tuner
×
Best way to learn
"Que Amigo Encontré"
Autoscroll
slow
fast
+/-
esc
set tempo
stop
Intro: C    C/D  C/E  Dm

C              Dm
Que amigo encontré
C                  Dm
Más cerca que un hermano
C           Dm
Siento su amor
    C           Dm
Más intimo que nadie

Coro
F   C/E  F   C
Cristo,  Cristo
Am  G/B  C   F   G/E G/D  C
Cr- is- to, fiel  a -mi- go

C                Dm
Esperanza encontré
     C           Dm
No puedo compararla
C                Dm
Si perdiera tu amor
   C              Dm
Mi corazón se rompería

Intro and verse
  C   C/D  C/E     Dm
A-3---5----7-------5-------5-------|
D---5---5----5---5---3---3---3---3-|
G---5---5------5-------5-------5---|
B----------------------------------|
chorus
A-------------------3---------3-------------|
D-3---------3---------2---------------2-----|
G---2---2-------2---------0------0-----2----|
B-----1-------1---------1-------1---------1-|

A----------3---------------------3---|
D-----0---0---2-------3-----2-----0--|
G-2---------------0------------------|
B-------0-------1--------------------|
Lead Break
A---------------------------------------------|
D---------------------------------------------|
G-2---------------0-----2---------------------|
B-------1---0-1---------------1-----0-1---3-1-|

A---------0-----2-----3-----------------------------|
D-------------------------------------3---2---0---3-|
G---------------------------------------------------|
B-0-1-----------------------------------------------|
filler
B-1-----1-----1-----1---|
G---0-----0-----0-----0-|

*****************************************
orden de la cancion
*Intro and chorus riff x 2
*intro and verse riff x 4 with verse 1
*Chorus riff x 1 with chorus
*filler x 1
*I and V riff with verse 2
*chorus riff
*filler
*lead break
*chorus chords and ad libbing
several times
F  C  F  C
Am  G  C  F  C  G  F
*filler
Suggest correction
Give kudos to tab author, rate the tab!
1 2 3 4 5
comments
print report bad tab
guest
You may want to rate the tab now too:
select rating
Wanna post a correction for this tab? Suggest correction