Oops, an error
Loading. Please wait.

La Noche Chords

61 views 1 this week
no commentswrite comment
1 2 3 4 5
3 more votes to show rating
add to favorites
launch autoscroll
font size
0
reset
transpose
0
reset
display chords
guitar tuner
Autoscroll
slow
fast
+/-
esc
set tempo
stop
Help us to improve Ultimate-Guitar.com Take our survey!
×
 Intro:

e------------------------------------------------------------------------
b------------------------------------------------------------------------
g----------------4---------------0------------------2------------------
d-----------4---------------0------------------2-----------------------
a------2---------------------------------0----------------2------------
E-----------------------3------------------------------------------------

e------------------------------------------------------------------------
b------------------------------------------------------------------------
g----------------4---------------0------------------2------------------
d-----------4---------------0------------------2-----------------------
a------2---------------------------------0----------------2------------
E-----------------------3------------------------------------------------

Verso:

Bm        G         A              Bm
Tòmame ahora, tal como soy

Bm        G         A              Bm
Abràzame fuerte, intèntalo

Bm        G         A              Bm
El deseo es hambre, duele al respirar

Bm        G         A              Bm
El amor es el agua que me saciarà

G           A         D    A
Ven ahora, entiendeme

Bm        G                       A
Coge mis manos con suavidad

D           G                       A
Ellas no hieren y tù lo sabes


    C                     Bm                        F#
No dolerà,           no dolerà,           no dolerà.

Chorus:


Bm        G         A              Bm
La noche es de los que se aman.

Bm        G         A              Bm
La noche es para el amor.

Bm        G         A              Bm
Because the night belongs to lovers.

Bm        G         A              Bm
Because the night belongs to us.


Segundo verso:

Bm        G         A              Bm
Tengo dudas cuando no estas.

Bm        G         A              Bm
El amor es de fuego o es de sal.

Bm        G         A              Bm
Es como un angel o es infernal.


Bm        G         A              Bm
En nuestra cama amanecerà.


G           A         D    A
Ven ahora, entiendeme.


Bm        G                       A
Como se siente bajo mi piel.


D           G                       A
Yo te deseo y tù lo sabes.


C                     Bm                        F#
No dolerà,           no dolerà,           no dolerà.


Repetir el chorus.


Solo de guitarra

Y el final:

  D      A        D           A       Bm     A           D           A
Y no puedo seguir sin ti y algo me quema al respirar.


 Bm          A      D          A         G       D            G
Es un circulo de ser y de amor, no puede ser real.


Bm                         D                          G                   F#
Me quieres tocar, me quieres tocar, me quieres tocar...


Repetir chorus y terminar con eso.

Esta version de Because the night de patti smith y versionada por Tahures zurdos

fue hecha por: MARCIO FERREIRA MORAIS.

Posdata:

el que no este deacuerdo con esta transcripcion hagalo saber en esta web.
Suggest correction
Give kudos to tab author, rate the tab!
1 2 3 4 5
comments
print report bad tab
guest
You may want to rate the tab now too:
select rating
Wanna post a correction for this tab? Suggest correction