Oops, an error
Loading. Please wait.

Lágrimas De Sueño Tab

5 views 1 this week
no commentswrite comment
1 2 3 4 5
3 more votes to show rating
add to favorites
launch autoscroll
font size
0
reset
how to read this tab
guitar tuner
×
Best way to learn
"Lágrimas De Sueño"
Autoscroll
slow
fast
+/-
esc
set tempo
stop
El riff de intro y de los versos es B (A) E (A)
donde B y E son el tronco principal, y A UN SOLO GOLPE
de transición, por así decirlo.
Escuchadla para pillar el ritmo, no es difícil.
También se puede tocar únicamente con B y E
y prácticamente suena igual?

El punteo de la intro y entre estribillos
que suena por encima de la guitarra:

1. ||--------------------------------
2  ||--------------------------------
3  ||-4-4-2----2-4-4-4-2------------
4  ||--------4------------4-2--------
5  ||--------------------------5-----
6  ||--------------------------------    x2

Riff:  B (A) E (A)
Voy a darme una vuelta por el tarro
viendo que esta noche no podré dormir
Dejaré que a ambos lados de la orilla
el espectáculo se ofrezca para mí

G
Voy sin casco en una noche de carreras?

1. ||--------------------------------
2  ||--------------------------------
3  ||-----2-----2--------------------
4  ||-0-4-----2----------------------
5  ||-------4------------------------
6  ||--------------------------------

B

1. ||--------------------------------
2  ||--------------------------------
3  ||-----2-----2--------------------
4  ||-0-4-----2----------------------
5  ||-------4------------------------
6  ||--------------------------------

E


A
Un folio en blanco, tal vez tu propia historia
F#m
cómo empezó y cómo va acabar toda esta mierda
B
sé que no es mucho para escribir una novela
E
que nadie tendrá que leer, sólo habrá que verla?


Riff y punteo de intro

Riff:  B (A) E (A)
Un cartel pone "cuida donde pisas,
el terreno cambia a cada anochecer"
Beberás de la fuente que prefieras
pero nunca, nunca calmarás tu sed?

G
Voy sin casco en una noche de carreras?

1. ||--------------------------------
2  ||--------------------------------
3  ||-----2-----2--------------------
4  ||-0-4-----2----------------------
5  ||-------4------------------------
6  ||--------------------------------

B

1. ||--------------------------------
2  ||--------------------------------
3  ||-----2-----2--------------------
4  ||-0-4-----2----------------------
5  ||-------4------------------------
6  ||--------------------------------

E


A
Un folio en blanco, tal vez tu propia historia
F#m
cómo empezó y cómo va acabar toda esta mierda
B
sé que no es mucho para escribir una novela
E
que nadie tendrá que leer, sólo habrá que verla?
A
No tengo miedo, frenos, ni remedio
F#m
Todo es seguro, estoy metido hasta el cuello
B
No es tan difícil saber de lo que estoy hablando
E
Hablo de cómo derrotar a los sueños amargos

Riff:  B (A) E (A)
Firmaré por si el miedo necesario
viene loco y se le ocurre aparecer
Lloraré de reírme hasta que el vientre
pida al cielo que me deje de doler

G                                                         B    E
mientras veo como se escapa la luna?
Suggest correction
Give kudos to tab author, rate the tab!
1 2 3 4 5
comments
print report bad tab
guest
You may want to rate the tab now too:
select rating
Wanna post a correction for this tab? Suggest correction