Oops, an error
Loading. Please wait.

3 Dias Tab

7 views 1 this week
no commentswrite comment
1 2 3 4 5
3 more votes to show rating
add to favorites
launch autoscroll
font size
0
reset
how to read this tab
guitar tuner
Autoscroll
slow
fast
+/-
esc
set tempo
stop
Help us to improve Ultimate-Guitar.com Take our survey!
×

e]----------------------------------------------------
b]----------------------------------------------------
g]----------------------------------------------------
d]---------8-----8-------8-----8-8-------8----8-------
a]----------------------------------------------------
E]---6-6-6---6-6---6-6-6---5-5-----3-3-3--3-3--3-3-3
                            
e]---------------------------------------------------
b]--------------------------------------------------
g]--------------------------------------------------
d]--8------10-------8-----8-------8-----8-------10---
a]------------6-6-6---6-6---6-6-6---6-6---8-8-8----8-8
E]----3-3---------------------------------------------

e]------------------------
b]------------------------
g]------------------------
d]--10-------9s/10-10-7-7-
a]-----8-8----------------
E]------------------------

y eso es lo que puntea la guitarra el principio,
pronto les tebdré le que hace la 2a guitarra,ojalá 
estas jentes se pongan a chambear por que tocan bien 
chido. pa`la gaby,

topo
Suggest correction
Give kudos to tab author, rate the tab!
1 2 3 4 5
comments
print report bad tab
guest
You may want to rate the tab now too:
select rating
Wanna post a correction for this tab? Suggest correction