Oops, an error
Loading. Please wait.

Amor Maldito Tab

37 views 1 this week
no commentswrite comment
1 2 3 4 5
3 more votes to show rating
add to favorites
launch autoscroll
font size
0
reset
how to read this tab
guitar tuner
Autoscroll
slow
fast
+/-
esc
set tempo
stop
Help us to improve Ultimate-Guitar.com Take our survey!
×
Esta es una version mejorada esta totalmente correcta

TALLER PARA NIÑOS - AMOR MALDITO

INTRO:

   F     D       C       A#      A
e|-----------------------------------------
B|-----------------------------------------
G|---------7-----5-------------------------
D|-------7---------5-------0-3---0-3---3/5-
A|-3----5--------------3--1-----0----------
E|-1---------------------------------------

        D       C      A#      A    G      E    F F F F
e|------------------------------------------------------------
B|------------------------------------------------------------
G|-------7-----5----------------------------------------------
D|-----7---------5-------0-3---0-3---0-3----------------------
A|---5--------------3--1-----0-------------3----3-3-3-3--0---3
E|-----------------------------------3-----0----1-1-1-1-------

riff
     F8   A8   G8  F8/E8/F8  G8  F8
e|------------------------------------
B|------------------------------------
G|---x----x----x----x--x--x----x----x-
D|---10---14---10---10-9--10--12----10
A|---8----12---10---8--7--8---10----8-
E|------------------------------------

      D/C#/D  G8  F8  E8/F8   G8   A8  G8
e|-----------------------------------------
B|-----------------------------------------
G|---x--x--x---x----x--x--x----x----x---x--
D|---7--6--7--12---10--9--10--12---14---12-
A|---5--4--5--10----8--8--9---10---12---10-
E|-----------------------------------------


PM (pintado)
F5
Duele ver que con frialdad me has engañado
 D5                           C5
duele ver que mi dolor no te ha importado
  A#5
fuiste cruel
A5         A#5                   C5
tan cruel que ya no siento el corazon


(aquí se marca el tiempo 2 veces con cada nota)
   F5                                D5
Me enamore de esta cara de angel que fingiste ser
                             A#5
crei que de mis sueños ereas la mujer
 A#5                     C5
aprovechandote de mi querer

PM

F5
Desconfio del amor

siento que todas me van a hacer lo mismo
 A#5
me desquito en la mujer
                                C5
que sin culpa me entregara su corazon
          A#5
porque no puedo querer
A#5
porque ya no he podido ser yo mismo   D5 (bajo: D, C, A 2 veces,
y la 3 ves D,C,A#)
        A#5
siento que cualquier mujer
                                 C5
no se acerca a mi con buena intencion


(G8, F8, E8, D)

         F5
Y he llorado tu amor maldito
         D5
que me mata y sigo vivo
           A#5
porque ha muerto toda mi ilusion
        C5
que habia en mi corazon

         F5
Y he llorado tu amor maldito
         D5
que en infierno se ha convertido
        A#5
que le pido y le suplico a dios
              C5
que me tenga algo de compasion

riff
     F8   A8   G8  F8/E8/F8  G8  F8
e|------------------------------------
B|------------------------------------
G|---x----x----x----x--x--x----x----x-
D|---10---14---10---10-9--10--12----10
A|---8----12---10---8--7--8---10----8-
E|------------------------------------

      D/C#/D  G8  F8  E8/F8   G8   A8  G8
e|-----------------------------------------
B|-----------------------------------------
G|---x--x--x---x----x--x--x----x----x---x--
D|---7--6--7--12---10--9--10--12---14---12-
A|---5--4--5--10----8--8--9---10---12---10-
E|-----------------------------------------
Suggest correction
Give kudos to tab author, rate the tab!
1 2 3 4 5
comments
print report bad tab
guest
You may want to rate the tab now too:
select rating
Wanna post a correction for this tab? Suggest correction