Oops, an error
Loading. Please wait.

Ella No Tiene Idea Tab

5 views 1 this week
no commentswrite comment
1 2 3 4 5
3 more votes to show rating
add to favorites
launch autoscroll
font size
0
reset
how to read this tab
guitar tuner
Autoscroll
slow
fast
+/-
esc
set tempo
stop
Help us to improve Ultimate-Guitar.com Take our survey!
×
Esta canción esta muy chida y fácil de tocar, esta correcta , eh!
Intro:
E----------------------------------------------------------+
A----------------------------------------------------------+
D-12--------11--------10---------9--------8-------7--------+
G---11--------11--------11--------11-------9-------7-------+
B-----10--------10--------10--------12-10~--10--8~--8-7~---+
e---------10~-------10~-------10~--------------------------+

E--------------------------------
A--------------------------------
D--------------------------------
G--------------------------------
B--7----7/8--7--5--5/7-7s8-7-----
e--------------------------------

Después de tocar esta parte estas son las pisadas que siguen:
(Recuerden que solo son puras quintas)
D5 A5 Gm5 B5 A#5 A5 Gm5 A5


Verso:
D5                   A5
Nunca más podrás dormir
Gm5                               B5
Porque en tu mente siempre estaré yo
A#5                    A5
Todas las falsas promesas
Gm5                                    A5
Los discos de sting... los discos de sting

   Pero es normal               la vida sigue y esto pronto...
E----------------------------------------------
A----------------------------------------------
D-/7--5--4------/7--5--4--5--4----5~-----------
G----------------------------------------------
B----------------------------------------------
e----------------------------------------------

Se me pasara

(Los cambios aquí son rápidos)
D5 A5 B5 A5 Gm5 B5 A5 X2

D5                     A5
Cuando oigas esta canción
Gm5                    B5
Y te retuerza el corazón
A#5                    A
Yo ya voy a estar muy lejos
Gm5                               A5
Muy lejos de aquí... muy lejos de ti

    Y así sabrás                 Que todo lo que yo te dije...
E----------------------------------------------
A----------------------------------------------
D-/7--5--4------/7--5--4--5--4----5~-----------
G----------------------------------------------
B----------------------------------------------
e----------------------------------------------

Fue verdad

D5 A5 B5 Gm5 A5 X2
La otra guitarra entra en la segunda vez que se tocan las pisadas
de arriba, escuchen bien
E-----------------
A-5----5-----5----
D----7-----7---7--  X4
G----7-----7---7--
B-----------------
e-----------------

D5 A5 B5 Gm5 A5 X2
La primera que se tocan estas pisadas la otra guitarra hace:
E-----------------
A-5--5--7-7-44-5--
D-----------------  X4 En la 2da vez se
G-7--7--9-9-66-7--     toca esto solo dos
B-----------------     veces y al final
e-----------------

E------------------
A-5-4-2-0--2--0----
D------------------
G-7-6-4-2--4--2----
B------------------
e------------------
Solo:
(La otra guitarra sigue haciendo las pisadas de D5 A5 B5 Gm5 A5
por dos veces más)
E---------------------------------------------------------------------
A---------------------------------------------------------------------
D---------------------------------------------------------------------
G---------------------------------------------------------------------
B-8-7-5-8-7-5-8-7-5-8-7-5-10-10-7-7--8-7-5-8-7-5-8-7-5-8-7-5-10-10-7-7
e---------------------------------------------------------------------

E-----------------------------------------------------
A-----------------------------------------------------
D-----------------------------------------------------
G--------------------------------------------------7--
B-8-7-5-8-7-5-8-7-5-8-7-5-10-10-7-7--8--7--5--7--5----
e-----------------------------------------------------

E---------------------------------------------------------------------
A---------------------------------------------------------------------
D---------------------------------------------------------------------
G---------------------------------------------------------------------
B-8-7-5-8-7-5-8-7-5-8-7-5-10-10-7-7--8-7-5-8-7-5-8-7-5-8-7-5-10-10-7-7
e---------------------------------------------------------------------

E-----------------------------------------------------
A-----------------------------------------------------
D-----------------------------------------------------
G--------------------------------------------------7--
B-8-7-5-8-7-5-8-7-5-8-7-5-10-10-7-7-/8--7--5--7--5----
e-----------------------------------------------------

E------------------------
A------------------------
D------------------------
G------------------------
B------------------------
e-/3--2--0--2--0--2/10~--

Dudas o comentarios al correo que esta hasta arriba
Suggest correction
Give kudos to tab author, rate the tab!
1 2 3 4 5
comments
print report bad tab
guest
You may want to rate the tab now too:
select rating
Wanna post a correction for this tab? Suggest correction