Oops, an error
Loading. Please wait.

Mario Bros 3 Tab

version 1
version 1

Whole song

145 views 1 this week
no commentswrite comment
1 2 3 4 5
3 more votes to show rating
add to favorites
×
Save as Personal and add changes to this tab that will be seen only by you. Learn more ›
×
You can save this tab as Personal to edit and correct it or add notes. All changes will be seen only by you. Learn more »
save as personal
new!
launch autoscroll
font size
0
reset
how to read this tab
guitar tuner
Autoscroll
slow
fast
+/-
esc
set tempo
stop
Trascripción De Maow- manuelillo_0@

Esta es la tablatura de Mario Bros 3 De Â?TallerÂ?
Es 100% Correcta, cualquier pedo ahí esta mi E-Mail

Bueno, Para tocar estas tablaturas escucha bien la canción
Ve los ritmos y también afina tu lira en Â?MIÂ?Â?

PALMUTE    *
SLIDE      /

------Intro-----

Â?G1Â?
E|----------------------------------|
B|----------------------------------|
G|----------------------------------| X8
D|----------------------------------| SE TOCA 8 VECES..
A|----88-66-55----------------------|
E|-66-------------------------------|

Â?G2Â?
     A#5    G5       D#5      F5
E|--------------------------------------|
B|--------------------------------------|
G|-------------------88888888-----------| X1
D|-88888888-55555555-88888888-33333333--| SOLO SE TOCA
A|-88888888-55555555-66666666-33333333--| UNA VEZ SIN PALMUTE..
E|-66666666-33333333----------11111111--|

Â?VERSOSÂ?
     A#5    G5       D#5      F5
E|--------------------------------------| Hoy es un buen día
B|--------------------------------------| Para irme ala escuela
G|-------------------88888888-----------| Sentarme junto a
D|-88888888-55555555-88888888-33333333--| Nancy y Enseñarle
A|-88888888-55555555-66666666-33333333--| Mi Lonchera Nueva..
E|-66666666-33333333----------11111111--|
 |PALMUTE*******************************|

     A#5    G5       D#5      F5
E|--------------------------------------| Ya van varias veces
B|--------------------------------------| Que nos dice la
G|-------------------88888888-----------| Maestra, que no nos
D|-88888888-55555555-88888888-33333333--| Agarremos Nada
A|-88888888-55555555-66666666-33333333--| Debajo de la mesa..
E|-66666666-33333333----------11111111--|
 |ESTE VERSO ES IGUAL QUE EL OTRO PERO SIN PALMUTE|

Â?PRECOROSÂ?
   D#5  F5   A#5  G5
E|----------------------------------|     Ya Viene El verano
B|----------------------------------|     Y no podré escuchar
G|-8888-----------------------------|     A Nancy cantando el
D|-8888-3333-8888-5555--------------| x2  Himno Nacional..
A|-6666-3333-8888-5555--------------|
E|------1111-6666-3333--------------|
 |SE TOCA DOS VECES SIN PALMUTE     |

Â?COROÂ?
   D#5  F5   A#5  G5 F5 D#5  F5
E|------------------------------------|     Tendré Que esperar
B|------------------------------------|     El Nuevo ciclo
G|-8888-----------------8888----------|     Escolar Para probar
D|-8888-3333-8888-5--3--8888-3333-----| x1  Su Mazapán..
A|-6666-3333-8888-5--3--6666-3333-----|
E|------1111-6666-3--1-------1111-----|
 |SE TOCA UNA VEZ SIN PALMUTE         |


*INTERLUDE*
E|--------------------------------------|
B|--------------------------------------|
G|--------------------------------------| X2
D|--------------------------------------| SE TOCA DOS VECES..
A|----88-66-55-x3---3/4-4/3---------------|
E|-66-----------------------------------|
 |LA SEGUNDA GUITARRA TOCA LO MISMO QUE EN EL INTRO|


*VERSOS*
  A#5          G5          D#5         F5
E|-------------------------------------------------| Su Padre
B|-------------------------------------------------| Es el Gerente
G|-------------------------888-888-888-------------| De una gran
D|-888-888-888-555-555-555-888-888-888-333-333-333-| Juguetería
A|-888-888-888-555-555-555-666-666-666-333-333-333-| Siempre le
E|-666-666-666-333-333-333-------------111-111-111-| Da dinero y
 |PALMUTE******************************************| Deja decir
                                                     Groserías.
     A#5    G5       D#5      F5
E|--------------------------------------| Mi padre es un taxista
B|--------------------------------------| Que Trabaja Todo el Día
G|-------------------88888888-----------| Se robo esta Lonchera
D|-88888888-55555555-88888888-33333333--| De una banca
A|-88888888-55555555-66666666-33333333--| En Galerías..
E|-66666666-33333333----------11111111--|
 |ESTE VERSO ES IGUAL QUE EL OTRO PERO SIN PALMUTE|

Â?PRECOROSÂ?
   D#5  F5   A#5  G5
E|----------------------------------|     Gracias A El he
B|----------------------------------|     Podido descubrir
G|-8888-----------------------------|     El significado
D|-8888-3333-8888-5555--------------| x2  De Reproducir..
A|-6666-3333-8888-5555--------------|
E|------1111-6666-3333--------------|
 |SE TOCA DOS VECES SIN PALMUTE     |

Â?COROÂ?
   D#5  F5   A#5  G5 F5 D#5  F5
E|------------------------------------|     A ella le gustan
B|------------------------------------|     Las Barbies y
G|-8888-----------------8888----------|     A mi el Futbol
D|-8888-3333-8888-5--3--8888-3333-----| x1  Pero Al doctor es
A|-6666-3333-8888-5--3--6666-3333-----|     lo mejor..
E|------1111-6666-3--1-------1111-----|
 |SE TOCA UNA VEZ SIN PALMUTE         |


Â?FINÂ?
E|----------------------------------|
B|----------------------------------|
G|--------888888--------888888888---| X1
D|-333333-888888-33333--888888888---|
A|-333333-666666-33333--666666666---|
E|-111111--------111111-------------|
 |PALMUTE**************|SIN PALMUTE |


BUENO HAY SE LAS DEJOO,, ESTAN BIEN LAS TABLATURAS
SALUDOS ALOS EP, AURA, MiupTeam,P.P, Los Â?Del M y 03Â?Â?
CYA;*
Suggest correction
Give kudos to tab author, rate the tab!
1 2 3 4 5
comments
print report bad tab
guest
Wanna post a correction for this tab? Suggest correction