Oops, an error
Loading. Please wait.

Mario Bros 3 Bass

142 views 1 this week
no commentswrite comment
1 2 3 4 5
3 more votes to show rating
add to favorites
×
Save as Personal and add changes to this tab that will be seen only by you. Learn more ›
×
You can save this tab as Personal to edit and correct it or add notes. All changes will be seen only by you. Learn more »
save as personal
new!
launch autoscroll
font size
0
reset
guitar tuner
Autoscroll
slow
fast
+/-
esc
set tempo
stop
Taller para niños ? Mario Bros 3
(BassTab elaborado por Robert-Punk)


Eichele, aki les dejo el Basstab de esta rola de Taller,
tan perra ke esta la rola y nadie se abia rifado con el Tab,
 Arriba el Punk Mexicano.!! TPN Rlz.! =)


* = Muchas Veces..


Empieza con:

*[00:00] Intro
----------------------------------------------------------------
----------------------------------------------------------------
------3*----0*--------------------------------------------------
------------------1*----3*--------------------------------------


*Verso [0:12]
(Hoy es un buen día para irme a la escuela?)
--------------------------------------------------------------x2
--------------------------------------------------------------x2
------3*----0*------------------------------------------------x2
------------------1*----3*------------------------------------x2


*Coro [00:32]
(Ya viene el verano y no podré escuchar a Nancy cantando el...)
--------------------------------------------------------------x2
--------------------------------------------------------------x2
--------------------------33333333----00000000----------------x2
---1-1-1-1----3-3-3-3-----------------------------------------x2


(Tendré que esperar el nuevo ciclo escolar, para probar su ..)
----------------------------------------------------------------
----------------------------------------------------------------
---------------3*----0-00-------------------------3-------------
---1*----3*-----------------3-33----1*-----3*-------------------


*Riff 1 [00:51]
--------------------------------------------------------------x2
--------------------------------------------------------------x2
------3*----0*------------------------------------------------x2
------------------1*----3*------------------------------------x2


*Verso [1:01]
(Su padre es el gerente de una gran juguetería siempre le da...)
----------------------------------------------------------------
----------------------------------------------------------------
3-3-3-3-3-3-3-3-0-0-0-0-0-0-0-0---------------------------------
--------------------------------1-1-1-1-1-1-1-1--3-3-3-3-3-3-3-3

(Mi padre es un taxista que trabaja todo el día, se robo esta..)
----------------------------------------------------------------
----------------------------------------------------------------
------3*----0*--------------------------------------------------
------------------1*----3*--------------------------------------


*Coro [1:23]
(Gracias a él he podido descubrir el significado de...)
--------------------------------------------------------------x2
--------------------------------------------------------------x2
--------------------------33333333----00000000----------------x2
---1-1-1-1----3-3-3-3-----------------------------------------x2


(A ella le gustan las barbies y a mi el fútbol pero al...)
----------------------------------------------------------------
----------------------------------------------------------------
---------------3*----0-00-------------------------3-------------
---1*----3*-----------------3-33----1*-----3*-------------------


*Verso Final [1:41]
(Y cuando será septiembre otra vez.)

----------------------------------------------------------------
----------------------------------------------------------------
----------------------------------------------------------------
-----3-3-3-3-1-1-1-1-1----3-3-3-3-1-1-1-1-1---------------------

(Para ke me diga la Nancy juguemos al Mario Bros 3.)
----------------------------------------------------------------
----------------------------------------------------------------
-------------------------------3--------------------------------
-----1**--------------------------------------------------------


Fin! =)

Listo, tan fácil la rola no?, pues practíquenla y denle duro al
Punk..

*ILoveYouMenxa [Valeria]..!! 4evertogether..*!

Cualquier duda o comentario de la rola:
jerotorrero@
Suggest correction
Give kudos to tab author, rate the tab!
1 2 3 4 5
comments
print report bad tab
guest
Wanna post a correction for this tab? Suggest correction