Oops, an error
Loading. Please wait.

Mario Bros 3 tab

version 2
version 2

Whole song

91 views 1 this week
no commentswrite comment
1 2 3 4 5
3 more votes to show rating
add to favorites
×
Save as Personal and add changes to this tab that will be seen only by you. Learn more ›
×
You can save this tab as Personal to edit and correct it or add notes. All changes will be seen only by you. Learn more »
launch autoscroll
font size
0
reset
how to read this tab
guitar tuner
edit
Autoscroll
slow
fast
+/-
esc
set tempo
stop
Ke onda soi nomo guitarro y vocal de zOna dE faje y les tengo
esta tab que esta 100% correcta no como las que habían subido
antes esta es la version original de taller para niños porke
la de allison es una mamada ggg arriba el punk mexicano!! Yeha!!
Hey un detalle antes de empezar hay que afinar la 6 cuerda en
(d)re pera que se escuche bn se afina pulsando la 6 cuerda en el
traste 7 y tiene que sonar como la 5 solo hay ke bajarla un tono
dejare también la tab del bajo... empezemos...


Acordes usados
 A#5  G5 D#5  F5 F#5  D5
e|---|---|---|---|---|---|
B|---|---|---|---|---|---|
G|-3-|---|---|---|---|---|
D|-3-|-5-|-1-|-3-|-4-|-0-|
A|-1-|-5-|-1-1-3-|-4-|-0-|
D|---|-5-|-1-|-3-|-4-|-0-|

Bn rif del intro
e------------------------------
B------------------------------
G------------------------------  se repite 8 veces
D------3-3--1-1--0-0-----------  es el intro
A-1-1--------------------------
D------------------------------

e--------------------------
B--------------------------
G-3------------------------
D-3-x8-5----1----3--------- x2  mientras la guitarra hace lo de
A-1----5-x8-1-x8-3-x8------     arriba ahí le agarran el ritmo
D------5----1----3---------     solo pongo las posisiones

Aki encuentren el ritmo solo es un palm mute yo solo les pongo
en donde se cambia de posision
e----------------------------------------
B----------------------------------------
G-3--------------------------------------
D-3--------------------5-----------------
A-1--------------------5-----------------
D----------------------5-----------------
Hoy es un buen dia para irme a la escuela

e----------------------------------------
B----------------------------------------
G----------------------------------------
D-1-----------------------3--------------
A-1-----------------------3--------------
D-1-----------------------3--------------
Sentarme junto a nanzi i enseñarle mi lonchera nueva

Aki ya hace el rasgueo hacia arriba y abajo
e----------------------------------------
B----------------------------------------
G-3--------------------------------------
D-3------------------------5-------------
A-1------------------------5-------------
D--------------------------5-------------
Ya van varias veces que nos dice la maestra

e----------------------------------------
B----------------------------------------
G----------------------------------------
D-1-----------------------3--------------
A-1-----------------------3--------------
D-1-----------------------3--------------
Que no nos agarremos nada debajo de la mesa

e----------------------------------------
B----------------------------------------
G---------------------------3------------
D-1------------3------------3--------5---
A-1------------3------------1--------5---
D-1------------3---------------------5---
Ya viene el verano y no podre escuchar

e----------------------------------------
B----------------------------------------
G------------------------3---------------
D-1---------3------------3-------5-------
A-1---------3------------1-------5-------
D-1---------3--------------------5-------
A nanzi cantando el himno nacional

Ojo aki me gusta hacer solo un rasgueo pero uds háganlo komo
mas les guste
e----------------------------------------
B----------------------------------------
G----------------------------------------
D-1------------3-----------0-----5--3--1-
A-1------------3-----------0-----5--3--1-
D-1------------3-----------0-----5--3--1-
Tendre que esperar el nuevo ciclo escolar

e----------------------------------------
B----------------------------------------
G----------------------------------------
D--------4-------------------------------
A--------4-------------------------------
D--------4-------------------------------
Para probar su masapan

Riff del intermedio esta fácil solo agárrenle el ritmo

e-----------------------------------------------------
B-----------------------------------------------------
G-----------------------------------------------------
D-----3-3-1-1-0-0-----3-3-1-1-0-0-----3-3-1-1-00------ x2
A-1-1-------------1-1-------------1-1------------4-3--
D-----------------------------------------------------

e----------------------------------------
B----------------------------------------aki es parecido al
G-3--------------------------------------intro pero no iwal
D-3-x5-3----5----3----1----4----3--------fijense en los cambios
A-1----3-x1-5-x5-3-x1-1-x8-4-x4-3-x4-----
D------3----5----3----1----4----3--------

Esto se hace 1 sola vez y los punteos de arriba dos veces

Salsa!!! Sigamos

Aki empieza un ritmo pokito diferente pero no esta dificil
e------------------------------------------------
B------------------------------------------------
G-3----------------------------------------------
D-3----------------------------5-----------------
A-1----------------------------5-----------------
D------------------------------5-----------------
Su padre es el gerente de una gran juguetería

e------------------------------------------------
B------------------------------------------------
G------------------------------------------------
D-1----------------------------5-----------------
A-1----------------------------5-----------------
D-1----------------------------5-----------------
Siempre le da dinero y deja decir grozerias

Aki empieza otra vez de ariba hacia abajo
e---------------------------------------------
B---------------------------------------------
G-3-------------------------------------------
D-3-------------------------3-----------------
A-1-------------------------3-----------------
D---------------------------3-----------------
Mi padre es un taxista qe trabaja todo el dia

e-----------------------------------------------
B-----------------------------------------------
G-----------------------------------------------
D-1---------------------------5-----------------
A-1---------------------------5-----------------
D-1---------------------------5-----------------
Se robo esta lonchera de una banca en galerías

e------------------------------------------------
B------------------------------------------------
G----------------------3-------------------------
D-1-------3------------3-------5-----------------
A-1-------3------------1-------5-----------------
D-1-------3--------------------5-----------------
Gracias a el he podido descubrir

e-------------------------------------------
B-------------------------------------------
G-----------------3-------------------------
D-1-------3-------3-------5-----------------
A-1-------3-------1-------5-----------------
D-1-------3---------------5-----------------
El significado de reproducir

e----------------------------------------
B----------------------------------------
G----------------------------------------
D-1--------3------------0------5--3--1---
A-1--------3------------0------5--3--1---
D-1--------3------------0------5--3--1---
A ella le gustan las barbis y ami el futbol

e------------------------------------------
B------------------------------------------
G------------------------------------------
D----------4-------------------------------
A----------4-------------------------------
D----------4-------------------------------
Pero al doctor es lo mejor

Cuidado aki abajo con los cambios
Aki entra el palm mute
e----------------------------------------
B----------------------------------------
G----------------------------------------
D-1------3-------1-----3--------1--------
A-1------3-------1-----3--------1--------
D-1------3-------1-----3--------1--------
      Y cuando será septiembre otra vez
Aki ya los hace libres y paras antes de que diga tres
Ahora que si la kieres acabar un poco después acabas en
e----------------------------------------              g-3-
B----------------------------------------              d-3-
G----------------------------------------              a-1-
D--3-------------------------------------
A--3-------------------------------------
D--3-------------------------------------
Para ke me diga la nanzi juguemos al mario bros tres

Ya estuvo terminas en esa posision

Salsa!! No olviden calificar y espero ke les sirva un buen
arriba taller para niños y no olviden apoyar a zOna dE fajE
busquen los video en youtube grax kiero mandar un saludo a
todos los de mi banda el emoboi el gus y tana y tamien ami novia
karlita ke la kiero un ch.

            
            
Suggest correction
Creating personal tab
Creating personal tab
You can edit any tab online and save it as your Personal.

You can edit, replace or remove any tab part or add personal notes – all changes will be seen only by you.

Personal tabs can be accessed anytime from any device, even offline.
Learn more »
Give kudos to tab author, rate the tab!
1 2 3 4 5
comments
print report bad tab
guest
Wanna post a correction for this tab? Suggest correction