Oops, an error
Loading. Please wait.

Quién Jugara Nintendo? Bass Tab

37 views 1 this week
no commentswrite comment
1 2 3 4 5
3 more votes to show rating
add to favorites
launch autoscroll
font size
0
reset
guitar tuner
Autoscroll
slow
fast
+/-
esc
set tempo
stop
Help us to improve Ultimate-Guitar.com Take our survey!
×
Esta cancion esta bien chida, estoy seguro que esta 99%
correcta, solo necesitan escucharla para los tiempos,
el orden ya esta. Yo la busque aqui pero no la haye asi
que la tuve que hacer yo y es mi primer tab.

Un saludo a los Inveishon!!!


INTRO
Riff 1
G|--------------7-5-4-4/9-7---------------9-7-5-4-5-7-|
D|------5-5h7-5------------------5-5h7-5--------------|
A|----5------------------------5----------------------|
E|--3------------------------3------------------------|

Riiff 2
|----------------555555-444444-----------------------------|x2
|--555555-777777---------------555555-777777-333333-555555-|x2
|----------------------------------------------------------|x2
|----------------------------------------------------------|x2

VERSE 1
Riff 1
G|--------------5~-----5-5h7-5-4-----7~-----7-7h9-7-5----------------------|
D|-----5~-----5------5-------------7------7---------------5-5h7-5-3-----5~-|
A|----------7------7-------------5------5---------------5-------------5----|
E|-3~-------------------------------------------------3-------------3------|

Riff 2
G|-------------------------------|
D|-------22-3-5----22-3-5--------|
A|----33--------33--------5*-----|
E|-3*------------------------3*--|

CHORUS
G|------------------------------------------|
D|------------------------------------------|
A|--7*-3*-5**-7*-3*-5*5~--------------------|
E|------------------------------------------|

BRIDGE 1
G|------------------------------------------------------------|
D|---------333-222------------333-222-------------------------|
A|-----333---------33-----333---------33----------------------|
E|--3*----------------3**----------------3*-3-2-0-3-2-0-------|

VERSE 2
G|-----------------------------------------------------------------|
D|-------222-333-55----222-333-55----------------------------------|
A|----333-----------333-----------5*5~-----------------------------|
E|-3*-----------------------------------3333333333333333333333-----|

BRIDGE 2
G|--------------------------------------222------------------------------------|
D|-----------------------------222333555---555333532----777555444----777555444-|
A|---222333555----222333555-333----------------------555----------555----------|
E|333----------333-------------------------------------------------------------|

G|-----------------------------------|
D|-------------222-------------------|
A|----222333555---555333222----------|
E|-333-------------------------------|

CHORUS
G|------------------------------------------|
D|------------------------------------------|
A|--7*-3*-5**-7*-3*-5*----------------------|
E|------------------------------------------|

OUTRO
G|------------------------------------------|
D|------------------------------------------|
A|--333333333333333333-3/0------------------|
E|------------------------------------------|
Suggest correction
Give kudos to tab author, rate the tab!
1 2 3 4 5
comments
print report bad tab
guest
You may want to rate the tab now too:
select rating
Wanna post a correction for this tab? Suggest correction