Oops, an error
Loading. Please wait.

See Ya Tab

version 1
version 1

Whole song

Interactive

13 views 1 this week
no commentswrite comment
1 2 3 4 5
3 more votes to show rating
add to favorites
launch autoscroll
font size
0
reset
how to read this tab
guitar tuner
×
Best way to learn
"See Ya"
Autoscroll
slow
fast
+/-
esc
set tempo
stop
SEE YA!!!

intro
solo 1 (guitarra 1º)


|------------------------------------------------------
|-9-10-9-7-9-7--5-7-5-4------5-7-5-0-7-5--------7-9-7--
|----------------------------------------6--8-9--------
|------------------------------------------------------
|------------------------------------------------------
|------------------------------------------------------


-----------------------------------------|----------------
--9-10-9-7-9-7--5-7-5-4------5-7-5-0-7-5-|----------------
-----------------------------------------|------------4---
-----------------------------------------|-4--4--4--4-4---
-----------------------------------------|-4--4--4--4-2---
-----------------------------------------|-2--2--2--2-----


esto va junto con el solo 1 (2º guitarra)
--------------------------------------------------------------
--------------------------------------------------------------
--9----------------------4----9---------------------------4---
--9--9--11--9--7--2---4--4----9--9--11--9--7--2--4--4--4--4---
--7--9--11--9--7--2---4--2----7--9--11--9--7--2--4--4--4--2---
-----7--9---7--5--0---2----------7--9---7--5--0--2--2--2------


aki empieza a cantar y se tokan varias vecescada acorde
(van juntas las 2 guitarras)
aqui estoy yo en mi habitacion...
---------------------------
---------------------------
--9---------------------4--          la promera vez es normal
--9--9--11--9--7--2--4--4--   <--  y la segunda vez es con palm mute
--7--9--11--9--7--2--4--2--
-----7--9---7--5--0--2-----

cuando se esta tocando el palm mute va esto:

   x14
|--------|----------------------------------------------|
|--------|----------------------------------------------|
|--xx-9--|--xx-8-xx-8-xx-9------------------------------|
|--xx-x--|--xx-x-xx-x-xx-x------------------------------|
|--xx-7--|--xx-6-xx-6-xx-7----7-xxxxxx--9-7-6-7-9-7-6-7-|
|--------|----------------------------------------------|


espero que te valla bien asi es mejor...
           x2
----------------------------------|---------------------------------------
----------------------------------|---------------------------------------
-22--222--44-444--99-999--xxx-xxx-|-22-222--4xxxxx--9~---6~------2------4-
-22--222--44-444--99-999--xxx-xxx-|-22-222--4xxxxx--9~---6~----2------4---
-00--000--22-222--77-777--xxx-xxx-|-00-000--2xxxxx--7~---4~--0------2-----
----------------------------------|---------------------------------------

solo 2

aun recuerdo aquella vez...
(van junto las 2 guitarras en la primera vuelta)
                               x2
|-------------------------------------------------------------------
|-------------------------------------------------------------------
|---1-2-1------------------------------------1-2-1----2-4-2---------
|-2--------1-2-1---2-4-2---1-2-1----2-4-2--2--------4---------1-2-1-
|--------2-------4-------2--------0-------------------------2-------
|-------------------------------------------------------------------

|----------------------------
|----------------------------
|----------------------------
|----------------------------
|-7xxxxxx--9-7-6-7-9-7-6-7---
|----------------------------


estos acordes los toka la primera guitarra varias veces
cuando se esta tokando por segunda vez  lo de arriba.
----------------------------
----------------------------
---9---------------------4--
---9--9--11--9--7--2--4--4--
---7--9--11--9--7--2--4--2--
------7--9---7--5--0--2-----


espero que te valla bien asi es mejor...
                       x2
|------------------------------|---------------------------------------
|------------------------------|---------------------------------------
|-22--222--44-444--99-999--xxx-|-22-222--4xxxxx--9~---6~------2------4-
|-22--222--44-444--99-999--xxx-|-22-222--4xxxxx--9~---6~----2------4---
|-00--000--22-222--77-777--xxx-|-00-000--2xxxxx--7~---4~--0------2-----
|------------------------------|---------------------------------------

solo 2

-----------------------------------------------------------------
-----------------2-0---------------------------------------------
----1-1-1/2-1--------2-1-1/2-1--1/2-1--------1--1/2-1-2-4-2-1-2--
--2-----------2-----------------------4-2-4----------------------
-----------------------------------------------------------------
-----------------------------------------------------------------

     x4
|------------|---------------------4(5)--4-2-4-4---4(5)-4--------
|------------|--5-4-2-0---0---5-4-------------------------5------
|---1-4-2-1--|----------2----------------------------------------
|-2----------|---------------------------------------------------
|------------|---------------------------------------------------
|------------|---------------------------------------------------


esto va junto con el solo y se
tokan varias veces los akordes(guitarra 2º)
--------------------------------
--------------------------------
---9---------------------4------ la primer vez es normal
---9--9--11--9--7--2--4--4------ y la segunda con palm mute
---7--9--11--9--7--2--4--2------
------7--9---7--5--0--2---------

que es mejor...
                       x2
|-------------------------------|------------------------------------
|-------------------------------|------------------------------------
|-22--222--44-444---99-999--xxx-|-22-222--4--9~---6~-------2-------4-
|-22--222--44-444---99-999--xxx-|-22-222--4--9~---6~-----2-------4---
|-00--000--22-222---77-777--xxx-|-00-000--2--7~---4~---0-------2-----
|-------------------------------|------------------------------------


solo 3
---------------------------------------------------------------------
---------------------------------------------------------------------
----6-9----6-9-----6-9-7-6-7----6-9----6-9-7-6-7----6-9-------6-10---
--7------7-------7------------7------7------------7---------7--------
---------------------------------------------------------------------
---------------------------------------------------------------------

esto va con el solo 3 y se toka varias veces cada acorde..
-------------------------------------
-------------------------------------
-9~-----9----------------------------
-9~-----9--9--11--9--7--9------------
-7~-----7--9--11--9--7--9------------
-----------7--9---7--5--7------------


esto va despues del solo 3
y esta parte lleva un solillo en la 2º guitarra ke no sake...
------------------
------------------
---9--------------
---9--9--11--9----
---7--9--11--9----
------7--9---7----


solo 4 (final)

------------------------------------------------------------------
------------------------------------------------------------------
------------------------------------------------------------------
--------6----9---7-----------6----10----9----6----4----6(7)-6-----
---7-------------------7------------------------------------------
------------------------------------------------------------------


letra.


aqui estoy yo en mi habitacion
pensando en viejos tiempos que no volveran
la silla esta vacia, ya no estas

cuando dijiste nos vemos
senti un millon de clavos en mis ojos dos
que hoy te ven partir a no se donde

espero que te valla bien, asi es mejor
yo aqui estare mirando tu retrato
y nunca te voy a olvidar

aun recuerdo aquella vez
dijiste quedate y te heredare papa
es algo que sabria hasta el final

como fingia ser puntual,
las cosas nunca pasan solo por pasar
no se si asi sera hasta el final

espero que te valla bien, asi es mejor
yo aqui estare mirando tu retrato
y nunca te voy a olvidar.

¿que es mejor?, ¿vivir sin ti o contigo no?
si escuchas bien las cosas son lo mismo
nunca te voy a olvidar.


dedicado pa las ny(i)dias... (L)
aunque no les keda pero en ellas nos inspiramos...

alguna sugerencia o aclaracion este es mi correo:
--->corocolacolocada@
Suggest correction
Give kudos to tab author, rate the tab!
1 2 3 4 5
comments
print report bad tab
guest
You may want to rate the tab now too:
select rating
Wanna post a correction for this tab? Suggest correction