Oops, an error
Loading. Please wait.

Todo Por Nosotros Bass

16 views 3 this week
no commentswrite comment
1 2 3 4 5
3 more votes to show rating
add to favorites
×
Save as Personal and add changes to this tab that will be seen only by you. Learn more ›
×
You can save this tab as Personal to edit and correct it or add notes. All changes will be seen only by you. Learn more »
save as personal
new!
launch autoscroll
font size
0
reset
guitar tuner
Autoscroll
slow
fast
+/-
esc
set tempo
stop
esta rola esta bien perra para los que les gusta 
el punk asi la sake yo
intro
1-----------------------------------
2-----------------------------------    (x2)
3-3-3--33-3---3-3--33-33------------
4-----------------------------------

1-----------------------------------
2-----------------------------------
3-----------------------------------
4-5-5--55-5-5------1-1-11-1-1--3-3-33-3-3
todo esto por dos 

verso
1------------------------------------
2------------------------------------    (x4)
3--333333333-------------------------
4 -----------555555555-111111111-333333333

coro
1-----------------------------------
2-----------------------------------  (x2)
3------------------3333333333333----
4------1111--3333-------------------

1-------------------------------------------
2-------------------------------------------
3--------------3--1---0---------------------
4--1111--3333-----------333333333-1111111111

despues se repite verso pero en la primera ronda 
tokas esto:
1--------------------------------------
2--------------------------------------
3-3333333------------------------------
4---------5555555-1111111-3-11-3-1-3-1-

y despues hases tres veces normal lo sigue y despues el coro normal 
despues sigue este ke es komo el puente:

1------------------------------------------
2------------------------------------------
3----------------------------------------3*
4-1111111-333333-00000-555-333-111111-3*---

despues sigue el coro algunas veces y al ultimo 
tocas esto:
1--------------
2--------------
3-3-1-0-----34*
4-------4--2---

tienen que oir la cancion para poder saber el
 ritmo alguna duda escribanme a mi correo
Suggest correction
Give kudos to tab author, rate the tab!
1 2 3 4 5
comments
print report bad tab
guest
Wanna post a correction for this tab? Suggest correction