Oops, an error
Loading. Please wait.

Y Me Miras Así Tab

4 views 1 this week
no commentswrite comment
1 2 3 4 5
3 more votes to show rating
add to favorites
launch autoscroll
font size
0
reset
how to read this tab
guitar tuner
Autoscroll
slow
fast
+/-
esc
set tempo
stop
Help us to improve Ultimate-Guitar.com Take our survey!
×
Esto es el puro solo:
e|-15/17-17-17-19-17--17-17-17-19-17----------17-17-17-19-17-21-17-|
B|-----------------------------------20-19-17----------------------|
G|-----------------------------------------------------------------|
D|-----------------------------------------------------------------|
A|-----------------------------------------------------------------|
E|-----------------------------------------------------------------|

e|-17-17-17-19-17--------------------------------------------------|
B|----------------20-19-17---17-17-17-19-17-17-17-17-19-17---------|
G|---------------------------------------------------------19-18-16|
D|-----------------------------------------------------------------|
A|-----------------------------------------------------------------|
E|-----------------------------------------------------------------|

e|---------------19-----------------------------17-17-17-19-17-----|
B|-17-17-17-19-17---17--17-17-17-19-17-----------------------------|
G|-------------------------------------19-18-16--------------------|
D|-----------------------------------------------------------------|
A|-----------------------------------------------------------------|
E|-----------------------------------------------------------------|


e|-17-17-17-19-17-----------17-17-17-19-17-21-17--17-17-17-19-17---|
B|-----------------20-19-17----------------------------------------|
G|-----------------------------------------------------------------|
D|-----------------------------------------------------------------|
A|-----------------------------------------------------------------|
E|-----------------------------------------------------------------|

e|-------------------------------------------16-16^-------18-18^---|
B|-20-19-17---13^-------------14-16-18-16-18--------16-18----------|
G|---------------16-15-16-13---------------------------------------|
D|-----------------------------------------------------------------|
A|-----------------------------------------------------------------|
E|-----------------------------------------------------------------|

e|-----------------------------------------------------------------|
B|-16-18-20-18-16--------------------------------------------------|
G|----------------18-16-14-----------------------------------------|
D|--------------------------18-16-14-12-11-------------------------|
A|-----------------------------------------------------------------|
E|-----------------------------------------------------------------|
Suggest correction
Give kudos to tab author, rate the tab!
1 2 3 4 5
comments
print report bad tab
guest
You may want to rate the tab now too:
select rating
Wanna post a correction for this tab? Suggest correction