Oops, an error
Loading. Please wait.

Ojalá Estuvieras Aquí Tab

26 views 1 this week
no commentswrite comment
1 2 3 4 5
3 more votes to show rating
add to favorites
launch autoscroll
font size
0
reset
how to read this tab
guitar tuner
×
Best way to learn
"Ojalá Estuvieras Aquí"
Autoscroll
slow
fast
+/-
esc
set tempo
stop
Riff 1:

      E     B       E           B       E
e|--------4---7------5p4---------4------------------|
B|----4h5---4----5p4---------4h5---5-4--(5)/7-5-----|
G|--------------------------------------------------|
D|--------------------------------------------------|
A|--------------------------------------------------|
E|--------------------------------------------------|


e|--------4---7------5p4---------4------------------|
B|--5p4h5---4----5p4-------5p4h5---5-4--(5)/7-5-----|
G|--------------------------------------------------|
D|--------------------------------------------------|
A|--------------------------------------------------|
E|--------------------------------------------------|


E               B     E
Así empieza un nuevo día
mojándome a pleno sol
así empieza una canción
rescatada del olvido.

E             B       E
Y ojalá estuvieras aquí
E               A      E
para poder empezar de cero
ojalá estuvieras aquí
para crear un mundo entero
ojalá estuvieras aquí
para dibujarte hoy con mis dedos
ojalá estuvieras aquí
para sentir otra vez tu deseo.

(Riff 1)

E           B       E
Ojalá estuvieras aquí
E                    A        E
para borrar de tu cabeza el miedo
ojalá pudieras volver
decirte que hoy ya no se acaba el tiempo
ojalá estuvieras aquí
para partirnos una vez más el pecho
E         B       E
ojalá pudiera sentir
E                    A
que estoy contigo allí
E       Emaj7   E               (Emaj7: 076444)
y allí no hay bien.


Solo:
    E    B     E                B     E
e|------------------------4---------------------------|
B|----5---7---4--5------5-------5---7---4--5----------|
G|--4----4---4--4---4/6------------4---4--4---4/6-4~--|
D|----------------------------------------------------|
A|----------------------------------------------------|
E|----------------------------------------------------|


Así acabará este día
empapado en tus olores
así acaba esta canción
para un as de corazones.

Y ojalá estuvieras aquí
para poder empezar de cero
ojalá estuvieras aquí
para crear un mundo entero
ojalá estuvieras aquí
para dibujarte hoy con mis dedos
ojalá estuvieras aquí
para sentir otra vez tu deseo.

(Riff 1)

Ojalá estuvieras aquí
para borrar de tu cabeza el miedo
ojalá pudieras volver
decirte que hoy ya no se acaba el tiempo
ojalá estuvieras aquí
para partirnos una vez más el pecho
ojalá pudiera sentir
que estoy contigo allí
y allí no hay bien.


e|-----------------|
B|---7-5-4---------|
G|---------6-4-----|
D|-----------------|
A|-----------------|
E|-----------------|


Riff 1

     Emaj7
e|----------------------------------------------------------|
B|---7-4-----------4------4----4------4----4h5---5p4--------|
G|-------4------------4-----------4-------4----------4------|
D|----------------6-----6-----6-----6----6--------------6---|
A|----------------------------------------------------------|
E|---------0--------0------0------------0--------0----------|


Emaj7: 076444


Cualquier corrección o comentario que queráis hacer, enviádmelas a
frang32@
Suggest correction
Give kudos to tab author, rate the tab!
1 2 3 4 5
comments
print report bad tab
guest
You may want to rate the tab now too:
select rating
Wanna post a correction for this tab? Suggest correction