Oops, an error
Loading. Please wait.

No Cambié Tab

by Tamara
56 views 1 this week
no commentswrite comment
1 2 3 4 5
3 more votes to show rating
add to favorites
launch autoscroll
font size
0
reset
how to read this tab
guitar tuner
×
Best way to learn
"No Cambié"
Autoscroll
slow
fast
+/-
esc
set tempo
stop
E||-----------------------|----------------------|----------------||
B||-----------------------|----------------------|----------------||
G||-----------------------|---0------0------0----|-----0-0-0-2-0--||
D||--2-3--2-2-3-2--2-3-2--|-3----3-3---3--3---3--|----------------||
A||-----------------------|----------------------|-3-3------------||
E||-----------------------|----------------------|----------------||
  NO cambie, no cambie      no cambie, o cambie  sigo siendo la misma

E||-------------------------------||
B||------0------------------------||
G||--0-0---2-2-0--0-0--0-0--------||
D||------------------------3-2----||
A||-------------------------------||
E||-------------------------------||
pero ya no sufro por tu querer
Suggest correction
Give kudos to tab author, rate the tab!
1 2 3 4 5
comments
print report bad tab
guest
You may want to rate the tab now too:
select rating
Wanna post a correction for this tab? Suggest correction