Oops, an error
Loading. Please wait.

Por Qué Será Tab

version 1
version 1

Whole song

34 views 1 this week
no commentswrite comment
1 2 3 4 5
3 more votes to show rating
add to favorites
launch autoscroll
font size
0
reset
how to read this tab
guitar tuner
×
Best way to learn
"Por Qué Será"
Autoscroll
slow
fast
+/-
esc
set tempo
stop
En Fa menor
Para puntearlo en mi menor baja un número y listo.(Las notas
para cantarlas están perfectas en la transcripción de Jony )
Si te quedan dudas pedime el wav o pdf o guitar pro.

   Fm
E |----------------------------------------|
B |-----------8--9-----------8-----9-------|
G |-----10----------------10---------------|
D |--10----------------10------------------|
A |----------------------------------------|
E |----------------------------------------|

C#
----------------------------------------|
-----------8--9-----------8-----9-------|
-----10----------------10---------------|
--11----------------11------------------|
----------------------------------------|
----------------------------------------|

D#7
----------------------------------------|
-----8-----9--11-------8--9-----11------|
--8-----------------8-------------------|
----------------------------------------|
----------------------------------------|
----------------------------------------|

G#
--------------8-----------------8-------|
-----9-----11----------9--11------------|
--8-----------------8-------------------|
----------------------------------------|
----------------------------------------|
----------------------------------------|

Fm
----------------------------------------|
-----------8--9-----------8-----9-------|
-----10----------------10---------------|
--10----------------10------------------|
----------------------------------------|
----------------------------------------|

C#
----------------------------------------|
-----------8--9-----------8-----9-------|
-----10----------------10---------------|
--11----------------11------------------|
----------------------------------------|
----------------------------------------|

C7                                      Fm
-----8----------------------------------|--------8--13---------||
--------------11-------9--------8-------|-----9----------------||
--9>------------------------------------|--10------------------||
-----------11>------10>------8>---------|--10------------------||
----------------------------------------|----------------------||
----------------------------------------|----------------------||
Suggest correction
Give kudos to tab author, rate the tab!
1 2 3 4 5
comments
print report bad tab
guest
You may want to rate the tab now too:
select rating
Wanna post a correction for this tab? Suggest correction