Oops, an error
Loading. Please wait.

Por Qué Será Tab

version 2
version 2

Whole song

16 views 1 this week
no commentswrite comment
1 2 3 4 5
3 more votes to show rating
add to favorites
launch autoscroll
font size
0
reset
how to read this tab
guitar tuner
Autoscroll
slow
fast
+/-
esc
set tempo
stop
Help us to improve Ultimate-Guitar.com Take our survey!
×
Espero les guste esta version. Un abrazo grande!!
Ah! por favor estudien el circulo de 5tas asi saben
colocar bien los nombres de los acordes. GRACIAS!!!

INTRO:

   Fm
E |----1----3-4-------1-3--4--|
B |-1---------------1---------|
G |---------------------------|
D |---------------------------|
A |---------------------------|
E |---------------------------|

Db
---1---3-4------1-3---4---|
-2------------2-----------|
--------------------------|
--------------------------|
--------------------------|
--------------------------|

Eb7
---3----4-6------3-4----6---|
-4-------------4------------|
----------------------------|
----------------------------|
----------------------------|
----------------------------|

G#
--------------8-----------------8-------|
-----9-----11----------9--11------------|
--8-----------------8-------------------|
----------------------------------------|
----------------------------------------|
----------------------------------------|

Fm
----1----3-4-------1-3--4--|
-1---------------1---------|
---------------------------|
---------------------------|
---------------------------|
---------------------------|

Db
---1---3-4------1-3---4---|
-2------------2-----------|
--------------------------|
--------------------------|
--------------------------|
--------------------------|

C7                       Fm
-----9-----6----4----3-|-1--------------------||
-----------------------|---1------------------||
--10-----6----5----3---|-1---1----------------||
-----------------------|-------3--------------||
-----------------------|---------3------------||
-----------------------|-----------4--1-------||
                                      Rasgueo


   Fm                                 C7
Me duele...me duele el corazon cuando comprendo,
                                          Fm
me duele saber que el que yo quiero tiene dueño
 Eb                                      Ab
y sufro en contra de mis propios sentimientos,
Db                    Bbm
sé que me traiciona una razon...
Db                       C7
sé que soy culpable y no lo quiero...


ESTRIBILLO
          Fm
Por que sera...
                                      Bbm
que me enamoro de quien no hay que enamorarse?
          Eb
Por que sera...
                                             Ab
que cuando encuentro un gran amor es siempre tarde?
          Db
Por que sera...
            Bbm                         Fm
que a veces soy un poco cruel con mi destino?
          G7
Por que sera...
           C7                 Fm
que cuando amo me equivoco de camino?


   Fm
E |----1----3-4-------1-3--4--|
B |-1---------------1---------|
G |---------------------------|
D |---------------------------|
A |---------------------------|
E |---------------------------|

Db
---1---3-4------1-3---4---|
-2------------2-----------|
--------------------------|
--------------------------|
--------------------------|
--------------------------|

Eb7
---3----4-6------3-4----6---|
-4-------------4------------|
----------------------------|
----------------------------|
----------------------------|
----------------------------|

G#
--------------8-----------------8-------|
-----9-----11----------9--11------------|
--8-----------------8-------------------|
----------------------------------------|
----------------------------------------|
----------------------------------------|

Fm
----1----3-4-------1-3--4--|
-1---------------1---------|
---------------------------|
---------------------------|
---------------------------|
---------------------------|

Db
---1---3-4------1-3---4---|
-2------------2-----------|
--------------------------|
--------------------------|
--------------------------|
--------------------------|

C7                       Fm
-----9-----6----4----3-|-1--------------------||
-----------------------|---1------------------||
--10-----6----5----3---|-1---1----------------||
-----------------------|-------3--------------||
-----------------------|---------3------------||
-----------------------|-----------4--1-------||
                                      Rasgueo

Me duele saber que solo somos muy amigos,
me duele tener que compartir todo contigo,
y a veces...a veces con miradas yo te digo
todo lo que siente el corazon...
todo lo que llevo adentro mio...


ESTRIBILLO:
          Fm
Por que sera...
                                      Bbm
que me enamoro de quien no hay que enamorarse?
          Eb
Por que sera...
                                             Ab
que cuando encuentro un gran amor es siempre tarde?
          Db
Por que sera...
            Bbm                         Fm
que a veces soy un poco cruel con mi destino?
          G7
Por que sera...
           C7                 Fm
que cuando amo me equivoco de camino?
       Fm
Larai la la
                                   A#m
Laila la la la la la la la la la la la
           D#
Larai la la
                                      G#
Laila la la la la la la la la la la la
          C#
Por que sera...
             A#m                     Fm
que a veces soy un poco cruel con mi destino?
          G7
Por que sera...
          C7              Fm
que cuando amo me equivoco de camino?


FINAL

Db                          Fdim - Fm
---3---4-3------3---4-3---|
-2-----------2------------|
--------------------------|
--------------------------|
--------------------------|
--------------------------|
Suggest correction
Give kudos to tab author, rate the tab!
1 2 3 4 5
comments
print report bad tab
guest
You may want to rate the tab now too:
select rating
Wanna post a correction for this tab? Suggest correction