Oops, an error
Loading. Please wait.

Ciudad Mágica Tab

105 views 3 this week
no commentswrite comment
1 2 3 4 5
3 more votes to show rating
add to favorites
launch autoscroll
font size
0
reset
how to read this tab
guitar tuner
Autoscroll
slow
fast
+/-
esc
set tempo
stop
Help us to improve Ultimate-Guitar.com Take our survey!
×
Hola espero que disfruten la tab , esta sacada de oido


Empieza así:

1|-----------------------------------------------
2|-----------------------------------------------
3|-----------------------------------------------
4|-----------------------------------------------
5|---88887777--------------3333------------------ x2
6|-------------5555-5555---------3333---5555-5555

1|--------------------------------------------------------------------
2|--------------------------------------------------------------------
3|--------------------------------------------------------------------
4|--------------------------------------------------------------------
5|--0----3---5---5\7---5---3---5--------------------------------------
6|-------------------------------------------------------------------- x3

1|--------------------------------------------------------------------
2|--------------------------------------------------------------------
3|--------------------------------------------------------------------
4|---7a----7a---7-7-10-7----------------------------------------------x4
5|--------------------------------------------------------------------
6|--------------------------------------------------------------------

     ------------------------------------------------------


Intento seguirte pero no doy mas...
1|--------------------------------------------------------------------
2|--------------------------------------------------------------------
3|-------5------------------------------------------------------------
4|---7---5---2---3----------------------------------------------------
5|---7---3---2---3----------------------------------------------------
6|---5-------0---1----------------------------------------------------

Y está muy bien así,
Por hoy no pienses mas,
Yo sé que lo necesitas...

1|--------------------------------------------------------------------
2|--------------------------------------------------------------------
3|-------5-----------5-----------5------------------------------------
4|-3-----5-----3-----5-----3-----5------2-----------------------------
5|-3-----3-----3-----3-----3-----3------2-----------------------------
6|-1-----------1-----------1------------0-----------------------------

Estribillo:
Me quedo con vos, yo sigo de largo, voy a buscarte...
Rasguean estos power chord
1|------------------------------------------------------------------
2|------------------------------------------------------------------
3|-------------------5----------------------------------------------
4|-3---2---7-----7---5---5---7--------------------------------------
5|-3---2---7-----7---3---5---7--------------------------------------
6|-1---0---5-----5-------3---5--------------------------------------

Bueno la canción repite lo mismo , y al final hace un punteo , este:
1|--------------------------------------------------------------------
2|--------------------------------------------------------------------
3|--------------------------------------------------------------------
4|--------------------------------------------------------------------
5|---3---2---0------------------3-------------------------------------
6|----------------3----5-------------3----5---------------------------


1|--------------------------------------------------------------------
2|--------------------------------------------------------------------
3|--------------------------------------------------------------------
4|--------------------------------------------------------------------
5|---3---2---0------------------3---------3----------------------------
6|----------------3----5-------------3--------------------------------


1|-----------------------------------------------
2|-----------------------------------------------
3|-----------------------------------------------
4|-----------------------------------------------
5|---88887777--------------3333------------------ x2
6|-------------5555-5555---------3333---5555-5555

Para papara papa pa :p
1|--------------------------------------------------------------------
2|--------------------------------------------------------------------
3|--------------------------------------------------------------------
4|---7---10---10---7---10---7---10----7-------------------------------
5|--------------------------------------------------------------------
6|--------------------------------------------------------------------

                       GRACIAS
Suggest correction
Give kudos to tab author, rate the tab!
1 2 3 4 5
comments
print report bad tab
guest
You may want to rate the tab now too:
select rating
Wanna post a correction for this tab? Suggest correction