Oops, an error
Loading. Please wait.

La Melodía De Dios Bass

82 views 1 this week
no commentswrite comment
1 2 3 4 5
3 more votes to show rating
add to favorites
×
Save as Personal and add changes to this tab that will be seen only by you. Learn more ›
×
You can save this tab as Personal to edit and correct it or add notes. All changes will be seen only by you. Learn more »
save as personal
new!
launch autoscroll
font size
0
reset
guitar tuner
Autoscroll
slow
fast
+/-
esc
set tempo
stop
Todas las mañanas del mundo...

G|--------------------------------------|
D|--------------------------------------|
A|-333333333333333-2-000000000000000----|
E|----------------------------------3-1-|

El reloj que amenaza y retrasa...

G|--------------------------------------|
D|--------------------------------------|
A|----------------3-55555555--------2---|
E|-11111111111111-----------333333-5----|

Cada cosa que no decis...

G|--------------------------------------|
D|--------------------------------------|
A|-333333333333333-2-000-222-33-555-7777|
E|--------------------------------------|

En el nombre de mi desengaño...

G|-----------------------------------------|
D|-----------232---------------------------|
A|--------------3--------55555555----------|
E|-11111111--------11-33---------333333-55-|

Vivo como siempre...

G|------------------------------------------|
D|------------------------------------------|
A|------------------------------------------|
E|-55555555-44444444-33333333-22222222------|

Con vos es 4 de noviembre...

G|-------------------------------------------|
D|-------------------------------------------|
A|-3333---------------------3333-------0-2-3-|
E|------3333-5555-33-5-3-1111---111-333------|

Que algo te libre...

G|-------------------------------------------|
D|-------------------------------------------|
A|-3333-7777-----------3--5-----------3333---|
E|------------5555-3--5----3--5-3-1111-------|

Sola, Sola, Sola...

G|-------------------|
D|---------------7---|
A|----3---5--7-5-----|
E|-1----3---5--------|


G|--------------------------------------------------------------|
D|-----------------------------10-------------------------------|
A|-3333-7777-12-12-12-12-10--12--12-10-8887--8----8--9-8-7-8-7-5|
E|--------------------------------------------8888--------------|

G|-----------------------------------------------|
D|-----------------------------------------------|
A|-3333---------------------5555---------0-5-3---|
E|-----3333-5555-33-5-3-1111-----111-333---------|

E|--------------------|
D|--------------------|
A|--3----------15H----|
E|------------------H-|


despues sigue todo igual...
Suggest correction
Give kudos to tab author, rate the tab!
1 2 3 4 5
comments
print report bad tab
guest
Wanna post a correction for this tab? Suggest correction