Oops, an error
Loading. Please wait.

El Amor Es Más Fuerte Tab

79 views 1 this week
no commentswrite comment
1 2 3 4 5
3 more votes to show rating
add to favorites
launch autoscroll
font size
0
reset
how to read this tab
guitar tuner
×
Best way to learn
"El Amor Es Más Fuerte"
Autoscroll
slow
fast
+/-
esc
set tempo
stop
1-------------------------------------------------------
2-------------------------------------------------------
3--8--6--4--(5)/11--9--9--11--8-----------------------------
4-------------------------------------------------------
5-------------------------------------------------------
6-------------------------------------------------------


1--------------------------------------------------------
2--------------------------------------------------------
3--8--8--8--9--8--6--4--4--6--4--4-----------------------
4-----------------------------------4--------------------
5--------------------------------------------------------
6--------------------------------------------------------


1--------------------------------------------------------
2--------------------------------------------------------
3--8--6--4--(5)/11--9--11--8--4------4-4-4--9-8--4--6--8-
4--------------------------------------------------------
5--------------------------------------------------------
6--------------------------------------------------------

1-----------------------------------------------------
2-----------------------------------------------------
3--8--6--4--(5)/11--9--13--8--4----4--4--4--9--8--4--6--4-
4-----------------------------------------------------
5-----------------------------------------------------
6-----------------------------------------------------


aclaraciones:
1_ no esta en el tono verdader de la cancion!
2_ ustedes fijense cuantas veces va cada parte
3_ (5) es opcional
4_ alguna puteada, acotacion o lo que sea a:

peperinopomulo_90@


adios..

taka!
Suggest correction
Give kudos to tab author, rate the tab!
1 2 3 4 5
comments
print report bad tab
guest
You may want to rate the tab now too:
select rating
Wanna post a correction for this tab? Suggest correction