Oops, an error
Loading. Please wait.

Activismo América Tab

13 views 1 this week
no commentswrite comment
1 2 3 4 5
3 more votes to show rating
add to favorites
launch autoscroll
font size
0
reset
how to read this tab
guitar tuner
Autoscroll
slow
fast
+/-
esc
set tempo
stop
Help us to improve Ultimate-Guitar.com Take our survey!
×
ACTIVISMO AMERICA
Grupo  :TANQUE
De     :guambrarrebatado@
Autor  :Luis  versión original de Muscaria
05:05 p.m. 07/09/2004


Las dos guitarras se afinan en Mi.

Intro

E-|-------------------------------------------------------------------|
B-|-------------------------------------------------------------------|
G-|-------------------------------------------------------------------|
D-|--2xx2xx-3-2------2xx2xx-3-2------2xx2xx-3-2------2xx2xx-3-2-------|
A-|--2xx2xx-----3-2--2xx2xx-----3-2--2xx2xx-----3-2--2xx2xx-----3-2---|
E-|--0xx0xx----------0xx0xx----------0xx0xx----------0xx0xx-----------|

E-|-------------------------------------------------------------------|
B-|-------------------------------------------------------------------|
G-|-------------------------------------------------------------------|
D-|--5xx5xx-3-2------4xx4xx-3-2------2xx2xx-3-2------2xx2xx-3-2-------|
A-|--5xx5xx-----3-2--4xx4xx-----3-2--2xx2xx-----3-2--2xx2xx-----3-2---|
E-|--3xx3xx----------2xx2xx----------0xx0xx----------0xx0xx-----------|

E-|----------------------------------0000--|
B-|----------------------------------0000--|
G-|----------------------------------0000--|
D-|--5xx5xx-3-2------4xx4xx-3-2------2222--|
A-|--5xx5xx-----3-2--4xx4xx-----3-2--2222--|
E-|--3xx3xx----------2xx2xx----------0000--|

E-|--------------------------------------------------|
B-|--------------------------------------------------|
G-|--------------------------------------------------|
D-|----------------------------------------------22--|
A-|--7777-9999-10101010-9999-7777-5555-3333-2222-22--|
E-|----------------------------------------------00--|

E-|--------------------------------------|
B-|--------------------------------------|
G-|--------------------------------------|
D-|-9-9--9--12-12--12--7-7--7-10-10--10--| x2
A-|-7-7--7--10-10--10--5-5--5--8--8---8--|
E-|--------------------------------------|

Estos son los acordes que se usan en el verso:

    E5  G6   D5  F5

E-|-----------------|
B-|-----------------|
G-|-9---12---7--10--|
D-|-9---12---7--10--|
A-|-7---10---5---8--|
E-|-----------------|

*todos los acordes se tocan punk 100%


E5            G6            D5             F5
500    años     cayendo    y        sufriendo
E5            G6            D5             F5
creyendo en infiernos impuestos por el  miedo
E5            G6            D5             F5
a las armas y al poder de un sistema de matar
E5            G6            D5             F5
las     creencias    de     esta        etnia
E5            G6            D5             F5
no     no     reconocemos     que       somos
E5            G6            D5             F5
la       mezcla    en     propia       tierra
E5            G6            D5             F5
de         valor       y          sufrimiento
E5            G6            D5             F5
que   es     nuestra      potencia   cultural


*E5 G6 D5 F5  X4
*coro:
E5         D5         F5           E5
no        no       queremos       mas
           D5         F5           E5
religiones                  impuestas
           D5         F5           E5
no        no       queremos       mas
           D5         F5           E5
división       y              miseria
           D5         F5           E5
que    no        se    dan    cuenta?
           D5         F5           E5
que      somos      una        alerta
           D5         F5           E5
de     una cultura   que    esta viva
           D5         F5           E5
pero    dividida   por  la  confusión


E5            G6            D5             F5
regresemos  a  ver  a las  calles  de América
E5            G6            D5             F5
llenas  de   niños    muriendo   sin   piedad
E5            G6            D5             F5
rezando    en    vano    pidiendo   la   mano
E5            G6            D5             F5
revelando la crueldad de esta falsa humanidad
E5            G6            D5             F5
no     no     reconocemos     que       somos
E5            G6            D5             F5
la       mezcla    en     propia       tierra
E5            G6            D5             F5
de         valor       y          sufrimiento
E5            G6            D5             F5
que   es     nuestra      potencia   cultural


*coro:

E5         D5         F5           E5
no        no       queremos       mas
           D5         F5           E5
religiones                  impuestas
           D5         F5           E5
no        no       queremos       mas
           D5         F5           E5
división       y              miseria
           D5         F5           E5
que    no        se    dan    cuenta?
           D5         F5           E5
que      somos      una        alerta
           D5         F5           E5
de     una cultura   que    esta viva
           D5         F5           E5
pero    dividida   por  la  confusión
E5         D5         F5           E5
que                         esperamos
           D5         F5           E5
para                        derrumbar
           D5         F5           E5
las                         fronteras
           D5         F5           E5
y                           progresar
           D5         F5           E5
no                         rechasemos
           D5         F5           E5
este                          destino
           D5         F5           E5
que    tiene       esta        tierra
           D5         F5           E5
de    alternativa    y    creatividad


E5                  F5
activismo      América
E5                  F5
combatiendo     apatía
E5                  F5
activismo      América
E5                  F5
activando la hermandad.

---------------------------------------------------------------------------------------------------------
Esta canción es todo un himno en los conciertos De Muscaria una de la mejores bandas de hard-core del
Ecuador, además esta versión echa por Tanque tiene un poder brutal, haciendo punk no-anarquista son los
mejores.
Suggest correction
Give kudos to tab author, rate the tab!
1 2 3 4 5
comments
print report bad tab
guest
You may want to rate the tab now too:
select rating
Wanna post a correction for this tab? Suggest correction