Oops, an error
Loading. Please wait.

Lo Siento En Mí Tab

9 views 1 this week
no commentswrite comment
1 2 3 4 5
3 more votes to show rating
add to favorites
×
Save as Personal and add changes to this tab that will be seen only by you. Learn more ›
×
You can save this tab as Personal to edit and correct it or add notes. All changes will be seen only by you. Learn more »
save as personal
new!
launch autoscroll
font size
0
reset
how to read this tab
guitar tuner
Autoscroll
slow
fast
+/-
esc
set tempo
stop
-INTRO-

ESTROFAS I:
Tu mirada, me está invitando a no volver a casa.
Yo me atrevo, contigo no le tengo miedo a nada.
E|-7------------5-7-5-----7------------------------|
B|---5-8-5--8-8-------8-8---5-8-5------------------|
G|-------------------------------------------------|

Y despertar? en un lugar que no existía
E|---5---5-s-7--7-7-5-5---5---5--------------------|
B|-8---8----------------8---8---8------------------|
G|-------------------------------------------------|

Para mí? para ti?
E|-5--s--7-----------5--s--7-----------------------|
B|-------------------------------------------------|
G|---------9--9-s-7----------9--9-s-7--------------|

ESTRIBILLO (BIS):
Lo siento en mí? Recorre todo el cuerpo,
E|---5-7------5-5-5-5-5-7--------------------------|
B|-------------------------------------------------|
G|-7-----7--7--------------------------------------|

Siento que explota mi mente? Ah ah, u oh u uh?
E|-7-8-10-10-8-7-8-8--7-7-7---------7-7-7----------|
B|--------------------------10-s-8-8------10-s-8-8-|
G|-------------------------------------------------|

Lo siento en mí? El tiempo se congela,
E|---5-7------5-5-5-5-5-7--------------------------|
B|-------------------------------------------------|
G|-7-----7--7--------------------------------------|

Quiero que dure por siempre? Ah ah, u oh u uh?
E|-7-8-10-10-8-7-8-8--7-7-7---------7-7-7----------|
B|--------------------------10-s-8-8------10-s-8-8-|
G|-------------------------------------------------|

-INTERMEDIO-

ESTROFAS II:
(Te te te) te confieso que cada vez que me amas llego al cielo
Yo te quiero para comernos este mundo entero
E|-7------------5-7-5-----7------------------------|
B|---5-8-5--8-8-------8-8---5-8-5------------------|
G|-------------------------------------------------|

Todo es mejor? si cuando abro los ojos tú estás
E|---5---5-s-7--7-7-5-5---5-----5------------------|
B|-8---8----------------8---8-----8----------------|
G|-------------------------------------------------|

Junto a mí? Y yo junto a ti?
E|-5--s--7----------5---5--s--7--------------------|
B|--------------------8----------------------------|
G|---------9--9-s-7-------------9--9-s-7-----------|

-ESTRIBILLO-
-PARTE: JAY KEY-

PRE-ESTRIBILLO FINAL:
Siento, siento, siento tus besos... Duele, duele, si estás muy lejos...
E|-7---7----------------7---7----------------------|
B|---8---8--8-8-8-7-5-----8---8--8-8-8-7-5---------|
G|-------------------------------------------------|

Y no me vayas a dejar... Y nunca en dejes de amaaar...
E|---7-8-7---------7*8v?---------------------------|
B|-9-------9---------------------------------------|
G|-----------9-10----------------------------------|

-ESTRIBILLO-
Suggest correction
Give kudos to tab author, rate the tab!
1 2 3 4 5
comments
print report bad tab
guest
Wanna post a correction for this tab? Suggest correction