Oops, an error
Loading. Please wait.

Que Más Da Chords

12 views 1 this week
no commentswrite comment
1 2 3 4 5
3 more votes to show rating
add to favorites
launch autoscroll
font size
0
reset
transpose
0
reset
simplify chords
display chords
guitar tuner
×
Best way to learn
"Que Más Da"
Autoscroll
slow
fast
+/-
esc
set tempo
stop
Para los que pedian esta gran cancion de tatuaje vivo
cualquier duda o aclaracion escriban a:
israel_lz_021@

E-----------------------------------------|
A-----------------------------------------|
D-----------------------------------------|
G---2------------------------------2s3-0--|
B-----0-3---3--------------------3--------|
e-------------0-3---3/7--7-5-3-0----------|

E-------------------------------------|
A-------------------------------------|
D-------------------------------------|
G----2--------------------------------|
B------0-3-5---5---------------7-7-8--|
e------------3---3-3s7--7-8-10--------|

G         Bm     C    D Dsus4 D
Y qué más da estar así
G         Bm        C         D Dsus4 D
Y que importa si no soy feliz
G       F#m          Bm
Qué más da que no estés aquí
Em             C                  G  D Dsus4 D
De todos modos te alejarías tú de mí


G       Bm        C              D Dsus4 D
Que más da ya no saber quién soy
G               Bm        C       D Dsus4 D
Que es lo que quiero y adónde voy
G       F#m          Bm
Ya no quiero seguir viviendo así
Em                C                     G     D Dsus4 D
La soledad me mata y te aseguro que es por ti

C           G
Ya no puedo vivir así
C                 G
Con tu recuerdo no soy feliz
D           D-C#-C
Solo quiero
C       D            G    D Dsus4 D
Solo te quiero junto a mí


G         Bm     C      D Dsus4 D
Y que más da estar así
G               Bm     C        D Dsus4 D
Chupando todo el día hasta morir
G       F#m          Bm
En la pulcata de la esquina
Em               C          G   D Dsus4 D
Y que importa si así es mi vida

C              G
Ya no quiero estar yo sin ti
C               G
Con tu recuerdo no soy feliz
D           D-C#-C
Solo quiero
C        D             G     D Dsus4 D
Solo quiero estar junto a ti


G       Bm       C          D Dsus4 D
Que más da si me voy de aquí
G         Bm         C         D Dsus4 D
Si ya no quieres ni saber de mí
G          F#m          Bm
Te has olvidado de mi persona
Em             C
 G
Que más da

   D   Dsus2  Dsus4
E------------------|
A------------------|
D------------------|
G---2----2----2----|
B---3----3----3----|
e---2----0----3----|
Suggest correction
Give kudos to tab author, rate the tab!
1 2 3 4 5
comments
print report bad tab
guest
You may want to rate the tab now too:
select rating
Wanna post a correction for this tab? Suggest correction