Oops, an error
Loading. Please wait.

Quizás Tengas La Razón Tab

50 views 3 this week
no commentswrite comment
1 2 3 4 5
3 more votes to show rating
add to favorites
launch autoscroll
font size
0
reset
how to read this tab
guitar tuner
×
Best way to learn
"Quizás Tengas La Razón"
Autoscroll
slow
fast
+/-
esc
set tempo
stop
Hay les va esta rola banda
un saludote a mi brother el alex del corazòn urbano


Intro:

       A
E ---------3-2---0------3-2---0-----3-2---0-----3-2---0---------|
B -------------3------------3-----------3-----------3-----------|
G ---2---2------------2-----------2-----------2-----------------|
D --------------------------------------------------------------|
A --------------------------------------------------------------|
E --------------------------------------------------------------|

A
VINE UN DIA A BUSCARTE

A DECIRTE LO QUE SIENTO
                        E
Y QUE PUEDE TENGAS LA RAZON

       Bm
SOLO HABIA DIVERCION
        G
YA NO HABIA COMPRENCION
        E
Y AHORA QUISIERA VOLVER
         A
A COMENZAR

A
YO DESEO VOLVER A CONTINUAR

Y NO VOLVER A RECORDAR

Y ESQUE SIEMPRE ESTOY
                 E     Bm.G.E.A
PENSANDO EN TU AMOR.........

         E
TENIAS RAZON

E --------------------------------------------------------------|
B --------------------------------------------------------------|
G --------------------------------------------------------------|
D --------------------------------------------------------------|
A ---------------2--2--4--2-------------------------------------|
E ---0--0--3--4--------------0----------------------------------|

          A
CREO ESTAR LOCO
E --------------------------------------------------------------|
B --------------------------------------------------------------|
G --------------------------------------------------------------|
D ---------------2--2--4--2-------------------------------------|
A ---0--0--3--4--------------0----------------------------------|
E --------------------------------------------------------------|
         E             D
OH PERO CREO QUE SOY EL LOCO
         A
A QUIEN AMAS TU
       E                A
NO ES TARDE AUN PARA CAMBIAR
          D             E
SE QUE QUIZAS TENGAS RAZON
           A
Y YO ESTE MAL


SOLO
E -----5-----5-----5-----5-----5------5-----5-----5-----5-----5-|
B --/4-5--/4-5--/4-5--/4-5--/4-5---/4-5--/4-5--/4-5--/4-5--/4-5-|
G --------------------------------------------------------------|
D --------------------------------------------------------------|
A --------------------------------------------------------------|
E --------------------------------------------------------------|

E -------------------12--------12--------12--------12--------12-|
B --5/7-P10--12b(14)---12b(14)---12b(14)---12b(14)---12b(14)----|
G --------------------------------------------------------------|
D --------------------------------------------------------------|
A --------------------------------------------------------------|
E --------------------------------------------------------------|

E ---------------------------------------------------------12---|
B ---------14-12------------------12-15-15~-15-15~-15-15-15--15-|
G -12b(13)-------b(13)12-------14-------------------------------|
D -----------------------14-------------------------------------|
A --------------------------------------------------------------|
E -----------------------------(aqui entra el sax)--------------|

E ------------------------------12------------12-12--12-12------|
B ----12-15-15~-15-15~-15-15-15----15---12-15-------------------|
G -14-----------------------------------------------------------|
D --------------------------------------------------------------|
A --------------------------------------------------------------|
E --------------------------------------------------------------|

E -12-12-12-14-17---14-12---------------------------------------|
B -------------------------14p12--------------------------------|
G --------------------------------14p11--14---------------------|
D --------------------------------------------------------------|
A --------------------------------------------------------------|
E --------------------------------------------------------------|

  A
RECUERDO QUE TE CONOCI

Y NO QUERIAS PLATICAR

PERO ALFIN PUDE
             E
HACERTE SONREIR

      Bm
NO TENIAS A QUIEN AMAR
      G
Y TE DIJE AQUÍ ESTOY
     E
TODA MI LOCURA
             A
PUEDES DISFRUTAR

        E              A
TENIAS RAZON CREO ESTAR LOCO
          E             D
OH PERO CREO QUE SOY EL LOCO
         A
A QUIEN AMAS TU

       E                A
NO ES TARDE AUN PARA CAMBIAR
          D             E
SE QUE QUIZAS TENGAS RAZON
           A
Y YO ESTE MAL
A                         A-A-A
SE QUE QUIZAS TENGAS LA RAZON.
Suggest correction
Give kudos to tab author, rate the tab!
1 2 3 4 5
comments
print report bad tab
guest
You may want to rate the tab now too:
select rating
Wanna post a correction for this tab? Suggest correction