Oops, an error
Loading. Please wait.

Mi Paz Tab

47 views 1 this week
no commentswrite comment
1 2 3 4 5
3 more votes to show rating
add to favorites
launch autoscroll
font size
0
reset
how to read this tab
guitar tuner
Autoscroll
slow
fast
+/-
esc
set tempo
stop
Help us to improve Ultimate-Guitar.com Take our survey!
×
Esta rola me la pidieron por correo y como la escribi, decidi
subirla, asi q aqui la tienen y voten x las tabs

Acordes:
Asus2:x02200
Dsus2:x00230
D    :x00232
G    :320033


Intro:

  Asus2                Dsus2
-----------------------------------------------------
--0--0---0---2-0---0---0---0---0-----/5--0h2-0-------
--2----2---2-----2-----2-----2---2-------------------
--2--------------------0-----------------------------
--0--------------------------------------------------
-----------------------------------------------------

  Asus2                Dsus2
-------------------------------------2-2/0-----------
--0--0---0---2-0---0---0---0---0-------------5/3/0---
--2----2---2-----2-----2-----2---2-----------------2-
--2--------------------0-----------------------------
--0--------------------------------------------------
-----------------------------------------------------


Asus2
y es q no pasa un momento x ti
     D           Dsus2         D          Dsus2
sentimiento ajeno al tiempo y ala soledad
         Asus2
y te marchaste algun tiempo de mi cabeza
     D           Dsus2         D          Dsus2
ya pasaron varios años, vuelo en otra direccion
       Asus2
pero si es como las aves q regresan a su nido
     D           Dsus2
aqui espero si decides regresar,
     D           Dsus2
aqui espero si decides
Asus2         Dsus2  (aqui es con los mismos arreglos del intro)
regresaaaaaaaaaaar uh


Coro:
Asus2
lo crees en tu dormir la luz tu respirar
      G
tu cuerpo al horizonte que me enloquece mirar
    Asus2
en tu boca el sabor de tu deseo fatal
      G
de tu forma tan dificil y diferente de amar aaa

  Asus2                Dsus2
-----------------------------------------------------
--0--0---0---2-0---0---0---0---0-----/5--0h2-0-------
--2----2---2-----2-----2-----2---2-------------------
--2--------------------0-----------------------------
--0--------------------------------------------------
-----------------------------------------------------

  Asus2                Dsus2
-------------------------------------2-2/0-----------
--0--0---0---2-0---0---0---0---0-------------5/3-----
--2----2---2-----2-----2-----2---2-----------------2-
--2--------------------0-----------------------------
--0--------------------------------------------------
-----------------------------------------------------

Asus2
y voy cayendo contigo
     D           Dsus2         D          Dsus2
en un vació tan lleno de abstinencia y soledad
    Asus2
tenía tantas ganas de abrasarte tan sólo si pudieras hoy quedarte
       D           Dsus2         D          Dsus2
iguaaaaal pero el tiempo nunca es igual
       Asus2
pero si es como las aves q regresan a su nido
     D           Dsus2
aqui espero si decides regresar,
     D           Dsus2
aqui espero si decides
Asus2         Dsus2  (aqui es con los mismos arreglos del intro)
regresaaaaaaaaaaar uh

Coro:
Asus2
lo crees en tu dormir la luz tu respirar
      G
tu cuerpo al horizonte que me enloquece mirar
    Asus2
en tu boca el sabor de tu deseo fatal
      G
de tu forma tan dificil y diferente de amar aaa


recuerden votar x la tab si les gusta y x cualquier duda aqui
les dejo mi msn chejoslide@
Suggest correction
Give kudos to tab author, rate the tab!
1 2 3 4 5
comments
print report bad tab
guest
You may want to rate the tab now too:
select rating
Wanna post a correction for this tab? Suggest correction