Oops, an error
Loading. Please wait.

Bésos De Plata Tab

40 views 3 this week
no commentswrite comment
1 2 3 4 5
3 more votes to show rating
add to favorites
launch autoscroll
font size
0
reset
how to read this tab
guitar tuner
×
Best way to learn
"Bésos De Plata"
Autoscroll
slow
fast
+/-
esc
set tempo
stop
     
     Para los amantes de la musica de trio, esta cancion es buenisima.
     


     e---7--7---6---7--7---5---3---1---0------
     B---8--8---7---8--8---4---5---3---1------
     G----------------------------------------
     D----------------------------------------          
     A----------------------------------------                          
     E----------------------------------------

 
     e---4--1---------------------------------
     B----------3--1--------------------------
     G-----------------2--1-------------------
     D---------------------------3--0---------          
     A----------------------------------2--0--
     E----------------------------------------
                             
                             R    A   R    A
     e-----------------------0----0--0-----0--
     B-----------------------1-------1--------
     G-----------------------2-------2--------
     D-----------------------2-------2--------  
     A-------4-h-5---3---2--------------------       
     E---4------------------------------------
     
     La R significa un rasgueo
     La a significa que la cuerda debe de ser apoyada.

     e------0-----0-----0-----0-----0-----0-----0-
     B---1-----0-----1-----0-----3-----0-----1----
     G---2-----1-----2-----1-----4-----1-----2----
     D--------------------------------------------  
     A--------------------------------------------      
     E--------------------------------------------


     e---5---0---7---0---8------------------------
     B--------------------------------------------
     G---5-------7-------9------------------------
     D--------------------------------------------           
     A--------------------------------------------      
     E--------------------------------------------
 
     esta rola va dedicada a mi hermano kichan francisco
     dudas, comentarios o sugerencias a mi correo
Suggest correction
Give kudos to tab author, rate the tab!
1 2 3 4 5
comments
print report bad tab
guest
You may want to rate the tab now too:
select rating
Wanna post a correction for this tab? Suggest correction