Oops, an error
Loading. Please wait.

Creo Estar Soñando Chords

63 views 1 this week
no commentswrite comment
1 2 3 4 5
3 more votes to show rating
add to favorites
launch autoscroll
font size
0
reset
transpose
0
reset
simplify chords
display chords
guitar tuner
×
Best way to learn
"Creo Estar Soñando"
Autoscroll
slow
fast
+/-
esc
set tempo
stop
Esta tambien va dedicada a Anabel; te quiero.

Creo estar soñando.

INTRO
e|-------------|------------|------------|-------8-----|
B|-------------|------------|------------|----------7--|
G|--------4----|------4-----|------9-----|-----7-------|
D|----------5--|----5----5--|---10---10--|--7----------|
A|-----5-------|------------|-0----------|-------------|
E|--3----------|-0----------|------------|-------------|

  G             Em            Am          D7
|--3--0-------|--3--0----3--|------3--0-|------2----|
|----------3--|--------2----|----3------|---3-----3-|
|-------2-----|-------------|--2--------|-2---------|
|-------------|-------------|-----------|-----------|
|-------------|-------------|-----------|-----------|
|-------------|-------------|-----------|-----------|

STRUMMING PATTERN: Para que se oiga mas completa esta
rola la guitarra lider debe arpegiar de este modo
los acordes de las estrofas y coro:

|------*-----|------*-----|
|--------*---|--------*---|
|----*-----*-|----*-----*-|
|------------|------------|
|------------|-b----------|
|-B----------|------------|

  Mientras que la guitarra ritmica toca en "Balada
lenta" los acordes.

G         Em
Siempre soñe
  Am         D7
Que tu vendrias a mi
G              E 
Y hoy que es asi
 Am             D7
me siento tan feliz

G             Em
Creo estar soñando
  Am          D7
Cuando tu me besas asi


G         Em
Todo mi amor
     Am           D7
lo tienes tu mi bien
G      Em
mi corazon
     Am          D7
lo tienes tu tambien

G             Em
Creo estar soñando
  Am          D7
Cuando tu me besas asi


G            Em
Si te miro bien
Am      D7       G
No me puedo contener
       Em
Yo ya mas
Am    D7
Y Te beso si
G        Em
Pero tambien
Am      D7
Tengo miedo
       G
De perder
     Em
tu amor
       Am
oh mi amor
       D7
no me dejes


G         Em
Siempre soñe
  Am         D7
Que tu vendrias a mi
G              Em
Y hoy que es asi
 Am             D7
me siento tan feliz

G             Em
Creo estar soñando
  Am          D7
Cuando tu me besas asi


FINAL
  G             Em            Am          D7
|--3--0-------|--3--0----3--|------3--0-|------2----|
|----------3--|--------2----|----3------|---3-----3-|
|-------2-----|-------------|--2--------|-2---------|
|-------------|-------------|-----------|-----------|
|-------------|-------------|-----------|-----------|
|-------------|-------------|-----------|-----------|
Suggest correction
Give kudos to tab author, rate the tab!
1 2 3 4 5
comments
print report bad tab
guest
You may want to rate the tab now too:
select rating
Wanna post a correction for this tab? Suggest correction