Oops, an error
Loading. Please wait.

Fue En Un Café Tab

141 views 3 this week
no commentswrite comment
1 2 3 4 5
2 more votes to show rating
add to favorites
launch autoscroll
font size
0
reset
how to read this tab
guitar tuner
Autoscroll
slow
fast
+/-
esc
set tempo
stop
Help us to improve Ultimate-Guitar.com Take our survey!
×
Esta es mi primera transcripción, espero y les guste quedo bien ¡chingona!

|---------------------------------|
|------0-------0-------0-------0--|
|----1-------1-------1-------1----|
|----------2-------2-------2------|
|--------2-------2-------2--------|
|--0------------------------------|

       MI
Cuando yo recuerdo que una vez
 SI7
La abandone, yo me pongo a llorar
                         MI       MI7
Y no se que hacer para olvidar
           LA               MI
hoy yo no se, que voy a hacer
                      SI7
su ausencia me mata y yo
              MI
no puedo volver

            DO#m
fue en un café

donde yo la deje
            SI7
fue en un café

donde la abandone
            DO#m
fue en un café

donde la vi llorar
            SI7
fue en un café

y no quise escuchar
             DO#m
fue en un café eee

|--------------------|
|-----------0--------|
|-------1h2---1------|
|--2--4---------4--2-|
|--------------------|
|--------------------|

         MI
cuando yo recuerdo que una vez
  SI7
me engaño, el dolor me hace ver
                         MI    MI7
que al dejarla yo tube razon
          LA             MI
hoy yo no se que voy a hacer
                      SI7
su ausencia me mata y yo
            MI
no puedo volver

            DO#m
fue en un café

donde yo la deje
            SI7
fue en un café

donde la abandone
            DO#m
fue en un café

donde la vi llorar
            SI7
fue en un café

y no quise escuchar
             DO#m
fue en un café eee

|--------------------|
|-----------0--------|
|-------1h2---1------|
|--2--4---------4--2-|
|--------------------|
|--------------------|

|---------------------------|
|---------------------------|
|---------------------------|
|---1--2-2-2-2--1------1--1-|
|-4---------------4--4------|
|---------------------------|

|------------------------------------------|
|------------------------------------------|
|-1h2-1------1-2-1---1h2-1---1h2-1---------|
|-------4--4-------4-------4-------2-1-----|
|--------------------------------------4-2-|
|------------------------------------------|

|-------0--------|
|-0-0h2---2-0----|
|-------------1--|
|----------------|
|----------------|
|----------------|

MI7
          LA              MI
hoy yo no se que voy a hacer
                      SI7
su ausencia me mata y yo
            MI
no puedo volver

            DO#m
fue en un café

donde yo la deje
            SI7
fue en un café

donde la abandone
            DO#m
fue en un café

donde la vi llorar
            SI7
fue en un café

y no quise escuchar
             DO#m
fue en un café eee
Suggest correction
Give kudos to tab author, rate the tab!
1 2 3 4 5
comments
print report bad tab
guest
You may want to rate the tab now too:
select rating
Wanna post a correction for this tab? Suggest correction