Oops, an error
Loading. Please wait.

Siempre Te Amaré Tab

44 views 1 this week
no commentswrite comment
1 2 3 4 5
2 more votes to show rating
add to favorites
launch autoscroll
font size
0
reset
how to read this tab
guitar tuner
×
Best way to learn
"Siempre Te Amaré"
Autoscroll
slow
fast
+/-
esc
set tempo
stop
SIEMPRE TE AMARE (till there was you)

Acordes usados:

A7    XX7989
A#    XX8766
D     XX7775
D7    XX7575
Em    XX5453
E7    XX2434
Fm    XX5656
F#m   XX5767
G     XX5543
Gm    XX6878

Intro

e|1------------------------------|-------------------------------|
B|---1---------------------------|3------------------------------|
G|-----------2-------------------|---3---------------------------|
D|----------------4--------------|-----------5-------------------|
A|-------------------------------|----------------2--------------|
E|-------------------------------|-------------------------------|
  ............................2 tiempos............................

Luego se arpegea la primera estrofa.

          D        F#m
Vuelve a mi dulce bien
            G           Gm
que bien sabes que te espero
      D    F#m   Fm Em
y yo nunca nunca jamas
A7      D Em  A7
te olvidare

      D          F#m
Al besar siento yo
           G           Gm
que te entrego toda el alma
           D     F#m  Fm Em
porque es tuya y tuya sera
A7        D  D7
hasta el final

         G Gm
Tu hermosura
               D         F#m
es como una rosa que me hace
    Em      E7          Em
sentir locamente de pasion
     A7
MI bien

          D        F#m
Vuelve a mi dulce amor
          G             Gm
que bien sabes que te espero
         D     F#m  Fm Em
pues yo nunca nunca jamas
A7      D D7
te olvidare

 Solo
e|-------------------------------|---1---------------------------|
B|-------------------------------|1-------3---1------------------|
G|------------------------2---3--|----------------3---2---0------|
D|-------------------------------|----------------------------3--|
A|-------------------------------|-------------------------------|
E|-------------------------------|-------------------------------|

e|-------------------------------|------3-3---3---3---3---3---3--|
B|--------1---4---3---1----------|------3-3---3---3---3---3---3--|
G|---2--------------------3---2--|3-----3-5---3---5---3---5---3--|
D|4------------------------------|-------------------------------|
A|-------------------------------|-------------------------------|
E|-------------------------------|-------------------------------|

e|------6 8---6-- 8---6-- 8---6--|------- ------- ----8-- ----7--|
B|------6-6---6---6---6---6---6--|--------10---------10-------9--|
G|6-----6-6---6---6---6---6---6--|------10------------9-------8--|
D|-------------------------------|----10----------10------9------|
A|-------------------------------|-8----------8------------------|
E|-------------------------------|-------------------------------|

e|6------ ------- 5------ -------|------- ------- ------- -------|
B|8---------------2--------------|6---6--------------------------|
G|7---------------3--------------5----------7--------------------|
D|8---------------2-------------7-----------------5--------------|
A|----------------3------------8-|-------------------------------|
E|-------------------------------|----------------------------5--|

e|------- ------- ------- -------|
B|------------------------6------|
G|--------------------5----------|
D|-----------4----7--------------|
A|3-----6------------------------|
E|-------------------------------|


         G Gm
Tu hermosura
               D         F#m
es como una rosa que me hace
    Em      E7          Em
sentir locamente de pasion
     A7
MI bien


Vuelve a mi dulce amor
          G             Gm
que bien sabes que te espero
      D  F#m Fm   Em
pues yo siempre a ti
A7   D
te amare
  A7       D   A#  D
siempre te amare.
Suggest correction
Give kudos to tab author, rate the tab!
1 2 3 4 5
comments
print report bad tab
guest
You may want to rate the tab now too:
select rating
Wanna post a correction for this tab? Suggest correction