Oops, an error
Loading. Please wait.

Pa' Que Retocen Tab

17 views 1 this week
no commentswrite comment
1 2 3 4 5
3 more votes to show rating
add to favorites
launch autoscroll
font size
0
reset
how to read this tab
guitar tuner
×
Best way to learn
"Pa' Que Retocen"
Autoscroll
slow
fast
+/-
esc
set tempo
stop
INTRO
e|-0-----8-0------8-------------------------------|
B|----6---------6---------------------------------|
G|------------------------------------------------|
D|------------------------------------------------|
A|------------------------------------------------|
E|------------------------------------------------|

Parte ?A?
e|-0-8-7-5---0-8-7-5-5------10-8-7--*----10-8-7-7-|
B|-------------------------6--------*--6----------|      En la 4ta tocada
G|----------------------------------*-------------|      para antes de las
D|----------------------------------*-------------| (x4) estrellas y sigues
A|----------------------------------*-------------|      a la ?Parte 1?
E|----------------------------------*-------------|

Parte 1
e|-0-----8-0------0--12-12-12?-8-7----------------|
B|----6---------6---------------------------------|
G|------------------------------------------------|
D|------------------------------------------------|
A|------------------------------------------------|
E|------------------------------------------------|

Parte ?B?
e|-0-8-7-5---0-8-7-5-5------10-8-7--*----10-8-7-7-|      En la 2da tocada
B|-------------------------6--------*--6----------|      para antes de las
G|----------------------------------*-------------|      estrellas. Luego
D|----------------------------------*-------------| (x2) repite dos veces
A|----------------------------------*-------------|      y sigue la
E|----------------------------------*-------------|      ?Parte 2?

Parte 2 (x2)
e|------------------------------------------------|
B|-7-6-7-6-7-6-5----7-6-5-----7-6-7-6-7-6-5-------|
G|------------------------------------------------|
D|------------------------------------------------|
A|------------------------------------------------|
E|------------------------------------------------|

e|-7-6-7-6-7-6-5----7-6-5-----7-6-7-6-7-6-5-------|
B|------------------------------------------------|
G|------------------------------------------------|
D|------------------------------------------------|
A|------------------------------------------------|
E|------------------------------------------------|

Ahora regresa a la ?Parte A?
Luego toca la ?Parte 2?, repitelo 2 veces
Y eso es todo. =] ;) :D
Suggest correction
Give kudos to tab author, rate the tab!
1 2 3 4 5
comments
print report bad tab
guest
You may want to rate the tab now too:
select rating
Wanna post a correction for this tab? Suggest correction