Oops, an error
Loading. Please wait.

Lágrimas Tab

136 views 3 this week
no commentswrite comment
1 2 3 4 5
3 more votes to show rating
add to favorites
×
Save as Personal and add changes to this tab that will be seen only by you. Learn more ›
×
You can save this tab as Personal to edit and correct it or add notes. All changes will be seen only by you. Learn more »
save as personal
new!
launch autoscroll
font size
0
reset
how to read this tab
guitar tuner
Autoscroll
slow
fast
+/-
esc
set tempo
stop
Intro:

Piano:
  Bm   A Bm    A             Bm   A
e|-----------|-------|    e|----|-------|
b|-----------|-------|    b|----|-------|
g|-----------|-------|    g|----|-------|
D|-9-9-7--9/-|-7-7-7-|    D|-9--|-7-7-7-|
A|-9-9-7--9/-|-7-7-7-|    A|-9--|-7-7-7-|
E|-7-7-5--7/-|-5-5-5-|x3  E|-7--|-5-5-5-|


Quena:
                                 G
e|-10-10-9----9-10-9----9-10-12-10p12h10-|
b|---------12--------12------------------|
g|---------------------------------------|
                                D
e|-10-10-9----9-10-9----9-10-12----|
b|---------12--------12---------10-|
g|---------------------------------|
                                    A
e|-------12-12-12----12-12p14-12-10-12-|
b|-10-10----------10-------------------|
g|-------------------------------------|
                     Bm
e|-10-12-10-12-10-12-12p14----------|
b|-------------------------15-14-12-|
g|----------------------------------|

e|-12p14----------|
b|-------15-14-12-|
g|----------------|


        G
Nunca sabrás
        D
cuanto te quise
        G
nunca sabrás
        D
cuanto te amé
        A
me enamore de ti
        G
perdidamente amor
        A
jamás fué para mí
        Bm
tu corazón


        G
que lindo fué
        D
soñar contigo
        G
una ilusión
          D
que nunca volverá
           A
tú eres culpable si
          G
por no sentir mi amor
           A
ahora quieres volver
           Bm
pero ya es tarde.


ESTRIBILLO:

G
lagrimas con lagrimas lo pagaras
D
todo lo que has hecho a mi corazon
      A               Bm
lloraraaaaaaaaas recordando. (X2)


Quena:
                                 G
e|-10-10-9----9-10-9----9-10-12-10p12h10-|
b|---------12--------12------------------|
g|---------------------------------------|
                                D
e|-10-10-9----9-10-9----9-10-12----|
b|---------12--------12---------10-|
g|---------------------------------|
                                    A
e|-------12-12-12----12-12p14-12-10-12-|
b|-10-10----------10-------------------|
g|-------------------------------------|
                     Bm
e|-10-12-10-12-10-12-12p14----------|
b|-------------------------15-14-12-|
g|----------------------------------| (X2)

e|-12p14----------|
b|-------15-14-12-|
g|----------------|


            G
que lindo fué
          D
soñar contigo
          G
una ilusión
          D
que nunca volverá
           A
tú eres culpable si
           G
por no sentir mi amor
          A
ahora quieres volver
          Bm
pero ya es tarde


ESTRIBILLO:

G
lagrimas con lagrimas lo pagaras
D
todo lo que has hecho a mi corazon
      A               Bm
lloraraaaaaaaaas recordando. (X4)


Quena:
                                 G
e|-10-10-9----9-10-9----9-10-12-10p12h10-|
b|---------12--------12------------------|
g|---------------------------------------|
                                D
e|-10-10-9----9-10-9----9-10-12----|
b|---------12--------12---------10-|
g|---------------------------------|
                                    A
e|-------12-12-12----12-12p14-12-10-12-|
b|-10-10----------10-------------------|
g|-------------------------------------|
                     Bm
e|-10-12-10-12-10-12-12p14----------|
b|-------------------------15-14-12-|
g|----------------------------------| (X2)
               Bm
e|-12p14----------|
b|-------15-14-12-|
g|----------------|
Suggest correction
Give kudos to tab author, rate the tab!
1 2 3 4 5
comments
print report bad tab
guest
Wanna post a correction for this tab? Suggest correction