Oops, an error
Loading. Please wait.

Un Día Te Vas Bass Tab

14 views 1 this week
no commentswrite comment
1 2 3 4 5
3 more votes to show rating
add to favorites
launch autoscroll
font size
0
reset
guitar tuner
Autoscroll
slow
fast
+/-
esc
set tempo
stop
Help us to improve Ultimate-Guitar.com Take our survey!
×
INTRO Y CORO

G-------------------------------------------------------
D-------------------------------------------------------
A---55555555-1212121212121212--55555555-1212121212121212
E-------------------------------------------------------

G-------------------------------------------------------
D------------------------------10101010-----------------
A--1010101010101010--12121212------------12121212-------
E-------------------------------------------------------

G-------------------------------------------------------
D------------------------------10101010--1212-----------
A--1010101010101010--12121212---------------------------
E-------------------------------------------------------

VERSO

G------------------------------------------------------
D------------------------------------------------------
A--55555555-1212121212121212--55555555-1212121212121212
E------------------------------------------------------

G------------------------------------------------------
D------------------------------------------------------
A--1010101010101010-1212121212121212-------------------
E------------------------------------------------------

PUENTE

G-----------------------------------------
D-----------------------------------------
A-77777777-99999999-----------------------
E-------------------9999999999999999------

G-----------------------------------------
D-----------------------------------------
A-77777777-99999999-----------------------
E-------------------9999999999999999------

G-----------------------------------------
D-88-77-55--------------------------------
A----------88-77-55-77-55555555-----------
E-----------------------------------------

G-----------------------------------------
D--1010-99-77-----------------------------
A-------------1010-99-77-10101010-12121212
E-----------------------------------------
Suggest correction
Give kudos to tab author, rate the tab!
1 2 3 4 5
comments
print report bad tab
guest
You may want to rate the tab now too:
select rating
Wanna post a correction for this tab? Suggest correction